Oops, an error
Loading. Please wait.

This House Is A Circus Tab

version 3
version 3

Whole song

Interactive

4,220 views 3 this week
3 commentsread comments
1 2 3 4 5
accurate
x 8
add to favorites
launch autoscroll
font size
0
reset
how to read this tab
guitar tuner
Tab Pro tools
  • play this tab
  • loop segment
  • change instrument
  • show fretboard
  • metronome
Autoscroll
slow
fast
+/-
esc
set tempo
stop
Contributor
Arctic Monkeys – This House Is a Circus
Ryan.c

Good song to play. That intro can be played in numerous way I just like playing it like 
you can play it with 5ths or just the root both sound good!.
I couldn’t have been asked to the timing for this so do it yourself.
if you got any corrections/suggestions about the tab just Email me at chhang7@hotmail.com.

intro
e---------|
b-7-8-8-7-|
g-7-8-8-7-|
d---------|
a---------|
e---------|

e----------------|
b--16-17--17--16-|
g--16-17--17--16-|
d----------------|
a----------------|
e----------------|
 or the simple

e--2--3--|--3--2-|
b--3--4--|--4--3-|
g--4--5--|--5--4-|
d--------|-------|
a--------|-------|
e--------|-------|


Chorus

e---------------|
b---------------|
g---------------|
d---------------|
a-------9-------|
e--7-5-----8----|

Middle bit

e---------------------------------|
b---------------------------------|
g---------------------------------|
d--------------11--------------7--|
a--5-5-5-7--9--9--10-10-10-7-9-5--|
E--7-7-7-5--7-----8--8--8--5-7----|

(try playing this on different strings it sounds better)

e-----------------------------------------------|
b-12-15-12-15-12-15--12-15-11-16-12-15-11-16----|
g-----------------------------------------------|
d-----------------------------------------------|
a-----------------------------------------------|
E-----------------------------------------------|


e---------------------------------------|
b---------------------------------------|
g---------------------------------------|
d-9--9-7--7-11-11-7-6---------------7---|
a-7--7-5--5-9--9--5-4--9-9-9-9--7-9-5---|
E----------------------7-7-7-7--5-7-----|

Ending
1st guitar
e---------------------------------|
b---------------------------------|
g---------------------------------|
d-----------------11-11-----------|
a--9-9-9-9-9--7-7-9--9--10-10-9---|
E--7-7-7-7-7--5-5-------8--8--7---|


2nd guitar
e------------------------------|
b------------------------------|
g------------------------------|
d------------------------------|
a---------------9-----------5--|
E-7-7-7-7-7-5-7---8-8-8-5-7----|

(this is just mainly played on the b string but ive seen him playin the chord aswell)
e---------------------------------|
b-12-13--15----19--17--15--13--12-|
g---------------------------------|
d-9--10--12----16--14--12--10--9--|
a---------------------------------|
E---------------------------------|
comments
print report bad tab
3 comments total.
0 reply
naggers wrote on April 25 2007, 12:58 pm

Its just not accurate

0 reply
es-335 wrote on April 25 2007, 02:38 pm

wrong, tehy play the inrto completely diffrent are in the song there are no chords despite the ones in the intro, so where d'you get yours from? this tab is wrong

0 reply
soot18 wrote on April 25 2007, 03:05 pm

good job 4 stars, at least someone got all the roots (thats notes for the cocksmokers above) right

I want to post or [tab]
guest
You may want to rate the tab now too:
select rating
Please do not post tabs as comments. Select "correction" instead!