Oops, an error
Loading. Please wait.

This House Is A Circus Bass Tab

version 4
version 4

Whole song

Interactive

2,233 views 6 this week
no commentswrite comment
1 2 3 4 5
excellent!
x 6
add to favorites
launch autoscroll
font size
0
reset
guitar tuner
Autoscroll
slow
fast
+/-
esc
set tempo
stop
Help us to improve Ultimate-Guitar.com Take our survey!
×
Artist: Arctic Monkeys

Album: Favourite Worst Nightmare



All tabs by Pedro Zappa
-----------------------------------------------------------------------------
-----------------------------------------------------------------------------


8. This House Is A Circus 


Intro

(wait)

G||--------------------|--------------------|
D||--------------------|--------------------|
A||------------------5-|------------------5-|
E||-------------5--7---|-------------5--7---|
    i    i    i    i     i    i    i    i
G||--------------------|--------------------|
D||--------------------|--------------------|
A||------------------5-|--------------------|
E||-7\----------5--7---|--------------------|
    i    i    i    i     i    i    i    i

Verse 1

G||--------------------|--------------------||  x8
D||--------------------|--------------------||
A||------------------5-|------------------5-||
E||-7-7----8----5--7---|---8----7----5--7---||
    i    i    i    i     i    i    i    i

G||--------------------|--------------------||  x11
D||--------------------|--------------------||
A||------------------9-|------------------5-||
E||-7----7---77-5--7---|-8----8---88-5--7---||
    i    i    i    i     i    i    i    i
G||--------------------|--------------------||
D||--------------------|--------------------||
A||------------------9-|--------------------||
E||-7----7---77-5--7---|-8------------------||
    i    i    i    i     i    i    i    i

Solo

G||--------------------|--------------------||  x8
D||--------------------|--------------------||
A||------------------9-|------------------5-||
E||-7----7---77-5--7---|-8----8---88-5--7---||
    i    i    i    i     i    i    i    i

Bridge

G||--------------------|--------------------|
D||--------------------|--------------------|
A||-----------5------5-|--------------------|
E||-0------0-----------|-2------2--10---9---|
    i    i    i    i     i    i    i    i
G||--------------------|--------------------||  x3
D||--------------------|--------------------||
A||------------------5-|------------------5-||
E||-7----7---77-5--7---|-7----7---77-5--7---||
    i    i    i    i     i    i    i    i
G||--------------------|--------------------|
D||--------------------|--------------------|
A||-----------5------5-|--------------------|
E||-0------0-----------|-2------2--10---9\--|
    i    i    i    i     i    i    i    i

(wait)

Verse 2

G||------------------7-|------------------7-|
D||-9----9---99-7--9---|-9----9---99-7--9---|
A||--------------------|--------------------|
E||--------------------|--------------------|
    i    i    i    i     i    i    i    i
G||------------------7-|--------------------|
D||-9----9---99-7--9---|-9----9---99--------|
A||--------------------|-------------9--8-7-|
E||--------------------|--------------------|
    i    i    i    i     i    i    i    i

G||--------------------|--------------------||  x8
D||--------------------|--------------------||
A||------------------9-|------------------5-||
E||-7----7---77-5--7---|-8----8---88-5--7---||
    i    i    i    i     i    i    i    i
G||--------------------|--------------------||  x6
D||--------------------|--------------------||
A||------------------9-|------------------5-||
E||-7-7--7-7--7-5--7---|-8-8--8-8--8-5--7---||
    i    i    i    i     i    i    i    i
G||--------------------|--------------------||  x2
D||--------------------|--------------------||
A||--------------------|--------------------||
E||-7-7--7-7--7-7--7-7-|-8-8--8-8--8-8--8-8-||
    i    i    i    i     i    i    i    i
G||--------------------||
D||--------------------||
A||--------------------||
E||-7------------------||
    i    i    i    i  


Tab by Pedro Zappa
-----------------------------------------------------------------------------
-----------------------------------------------------------------------------
Suggest correction
comments
print report bad tab
guest
You may want to rate the tab now too:
select rating
Wanna post a correction for this tab? Suggest correction