Oops, an error
Loading. Please wait.

Too Much To Ask Bass Tab

version 1
version 1

Whole song

Interactive

3,747 views 30 this week
1 commentread comment
1 2 3 4 5
accurate
x 3
add to favorites
launch autoscroll
font size
0
reset
guitar tuner
Tab Pro tools
  • play this tab
  • loop segment
  • change instrument
  • show fretboard
  • metronome
Autoscroll
slow
fast
+/-
esc
set tempo
stop
Contributor
Difficulty
intermediate
THIS IS REEALLY HARD TO TAB SO PLEASE BE VERY SOFT WITH TEH RATINGS AND COMMENTS

G|---------------------------------------------|
D|---2----5-4----------------------------------|
A|------2-----6--6~--4-5--5~-------------------|x6
E|0---------------------------4-5--4-5-5-5-4---|
  Em    B7           Dm       Am

Chorus:
G|---------------------------------------------------|
D|-----7------------7------------7-------------------|
A|--------------------------------------------7-5----|
E|5--5----4h5-5--5-----4h5-5--5-----4h5-5--5------7--|
  Am

G|---------------------------------------------------|
D|-----5------------5------------5-------------------|
A|------------------------------------------------5--|
E|3--3----2h3-3--3-----2h3-3--3-----2h3-3--3--4-6----|
  Gm

G|---------------------------------------------------|
D|-----7------------7------------7-------------------|
A|--------------------------------------------7-5----|
E|5--5----4h5-5--5-----4h5-5--5-----4h5-5--5------7--|
  Am

G|-----------------------------------------------------|
D|-----9------------9---9--------9---------------------|
A|-----------------------------------------------------|
E|7--7----6h7-7--7----x----7--7-----6h7-7-6-6-4-4-3-3--|
  B7

Verse:
G|---------------------------------------------|
D|---2----5-4----------------------------------|
A|------2-----6--6~--4-5--5~-------------------|x2
E|0---------------------------4-5--4-5-5-5-4---|
  Em    B7           Dm       Am

G|-------------------------------------------------|
D|-------------------------------------------------|
A|----10~---------------13-12-10~------------------|
E|0~-------10~--7~--0~-------------10~--7~--7-7-7--|
  Em  Gm   Dm   B7  Em        Gm   Dm   B7   

Chorus:
G|---------------------------------------------------|
D|-----7------------7------------7-------------------|
A|--------------------------------------------7-5----|
E|5--5----4h5-5--5-----4h5-5--5-----4h5-5--5------7--|
  Am

G|---------------------------------------------------|
D|-----5------------5------------5-------------------|
A|------------------------------------------------5--|
E|3--3----2h3-3--3-----2h3-3--3-----2h3-3--3--4-6----|
  Gm

G|---------------------------------------------------|
D|-----7------------7------------7-------------------|
A|--------------------------------------------7-5----|
E|5--5----4h5-5--5-----4h5-5--5-----4h5-5--5------7--|
  Am

G|-----------------------------------------------------|
D|-----9------------9---9--------9---------------------|
A|-----------------------------------------------------|
E|7--7----6h7-7--7----x----7--7-----6h7-7-6-6-4-4-3-3--|
  B7

Outro:
G|---------------------------------------------|
D|---2----5-4----------------------------------|
A|------2-----6--6~--4-5--5~-------------------|x2
E|0---------------------------4-5--4-5-5-5-4---|
  Em    B7           Dm       Am
comments
We did not receive enough feedback on this tab! Please rate:
print report bad tab
1 2 3 4 5
1 comment total.
0 reply
mrguidogenio wrote on January 30 2012, 10:45 am

I Don't get the Timing. A Guitar Pro Tab would be easier.

I want to post or [tab]
guest
You may want to rate the tab now too:
select rating
Please do not post tabs as comments. Select "correction" instead!