Oops, an error
Loading. Please wait.

Too Much To Ask Tab

version 2
version 2

Whole song

Interactive

8,995 views 1 this week
no commentswrite comment
1 2 3 4 5
x 4
add to favorites
launch autoscroll
font size
0
reset
how to read this tab
guitar tuner
Autoscroll
slow
fast
+/-
esc
set tempo
stop
Help us to improve Ultimate-Guitar.com Take our survey!
×
Difficulty
intermediate
Too much to ask

Intro:

e----------------|--------------|----1------8-----------------|
h----------------|--------------|----3------10----------------|
G-------------0--|-0---------0--|----2------9-----------------|
D-------2---2----|---4----------|-0--0------0-----------------|
A---------2------|-----6-2-6----|----0---0--0-----------------|
E--3-2-----------|--------------|----0------0-----------------|


Verse:  Em, B7, Dm, Am   x3
            Em, B7, Dm, B7

Refrain: Am, G
              Am, B7

2. Verse: hohe Barre – Chords picken

Ending:

e---------0----------|
h---------0----------|
G---------0----------|
D---------2----------|
A---------2----------|
E--3--2---0----------|

Solo:
e-------------------------------------------------------------------|
h-------------------------------------------------------------------|
G-------------------------------------------------------------------|
D---------------------10-9--7-9-7-9-7-----7----7--------------------|
A--10-9--7---7-7-9-10------------------10---10---10-12-7------------|
E-------------------------------------------------------------------|

e-------------------------------------------------------------------|
h-------------------------------------------------------------------|
G-------------------------------------------------------------------|
D-----------b10-9--10-7-------7-7----7-7----------------------------|
A--7-7-9-10----------------10-----10-----10-9-----------------------|
E-------------------------------------------------------------------|
Suggest correction
comments
print report bad tab
guest
You may want to rate the tab now too:
select rating
Wanna post a correction for this tab? Suggest correction