Oops, an error
Loading. Please wait.

Too Much To Ask Tab

version 3
version 3

Whole song

Interactive

47,800 views 33 this week
8 commentsread comments
1 2 3 4 5
x 37
add to favorites
launch autoscroll
font size
0
reset
how to read this tab
guitar tuner
Autoscroll
slow
fast
+/-
esc
set tempo
stop
Help us to improve Ultimate-Guitar.com Take our survey!
×
Author
Difficulty
advanced
[Chords]
Em-022000
B7-021200
Dm-000231
Am-002210

[Intro]                    
e|------------------------1----8---------------------------------------------|
B|------------------------3----10--------------------------------------------|
G|-----0------------0-----2----9---------------------------------------------|
D|----2--2s5-4----1---0------------------------------------------------------|
A|---2---------6s2-----------0-----------------------------------------------|
E|--0------------------------------------------------------------------------|

[Verse 1]
      Em                       B7
The smiles as she walked in the room
      Dm                          Am
have all turned into frowns am I too quick to assume
         Em                    B7
that the love is no longer in bloom
       Dm                          Am
The tantrums and the tears play a very different tunes to what they
 Em                B7
   did before Their heads red raw
         Dm                             Am
And the ending doesn't sound like the happiest around When you
 Em               B7                      Dm
sobbed before it felt much more like the product of the squabble
Am
Now there's reason for it to be something more

[Chorus]
Am-577555
G -355433
B7-021200

  Am
And there would be
                                       G
Oh its uncertain whether the curtain has shut for good She
                                                           Am
said "see if it's still raining but I'm not dressed for it, and
                                                          B7  
if you loved me" And I interrupt to receive the scowl and stare

But still decided to stop her there.

[Bridge]
e|-------------------------------1---8---------------------------------------|
B|-------------------------------3---10--------------------------------------|
G|--------------0-----------0----2---9---------------------------------------|
D|--5-5-4-4----2--2s5-4----1---0---------------------------------------------|
A|------------2---------6s2--------0-----------------------------------------|
E|-----------0---------------------------------------------------------------|

[Verse 2]
(Play all this while the verse is going.)
e|----7-------------7--------10-----------------------7----------------------|
B|---8-8-10-8-8----8-8--10s12-----10-12-13-12-10--8-10-10-8------------------|
G|--9--------9----8-------------10--------------10----------9----------------|
D|---------------------------------------------------------------------------|
A|---------------------------------------------------------------------------|
E|---------------------------------------------------------------------------|
                                                      "asleep or   awake"  
e|----7-------------7--------10------------------------10-----7----5---------|
B|---8-8-10-8-8----8-8--10s12-----10-12-13-12-10--10---10-----7----5---------|
G|--9--------9----8-------------10--------------10-----11-----8----5---------|
D|-----------------------------------------------------12-----9----7---------|
A|-----------------------------------------------------------------7---------|
E|-----------------------------------------------------------------5---------|

(Bar chords again)
Am
awake is a mystery
                            G
Would a kiss be too much to ask
                                                            Am
When you fit me as Sunday's frozen pitch fits the thermos flask

It's a pity
                           B7
It just hit me we can't go back

To the chest touching on the back

[Outro]
e|-------------------------------1---8---------------------------------------|
B|-------------------------------3---10--------------------------------------|
G|--------------0-----------0----2---9---------------------------------------|
D|--5-5-4-4----2--2s5-4----1---0---------------------------------------------|
A|------------2---------6s2--------0-----------------------------------------|
E|-----------0---------------------------------------------------------------|

e|----7-------------7--------10-----------------------7----------------------|
B|---8-8-10-8-8----8-8--10s12-----10-12-13-12-10--8-10-10-8------------------|
G|--9--------9----8-------------10--------------10----------9----------------|
D|---------------------------------------------------------------------------|
A|---------------------------------------------------------------------------|
E|---------------------------------------------------------------------------|

e|----7-------------7--------10-----------------------7---------------------|
B|---8-8-10-8-8----8-8--10s12-----10-12-13-12-10--8-10-10-8-10-8-7----------|
G|--9--------9----8-------------10--------------10--------------------------|
D|--------------------------------------------------------------------------|
A|--------------------------------------------------------------------------|
E|--------------------------------------------------------------------------|
Suggest correction
comments
print report bad tab
8 comments total. Showing first comments.
-2 reply
dominico1 21 Nov 07, 2007 03:56 PM

Great tab i just think that one note in the 2nd verse is wrong

e|----7------------
B|---8-8-10-8---8--
G|--9--------*7*---
D|-----------------
A|-----------------

E|-----------------

+1 reply
Dane4488 51 Nov 07, 2007 10:27 PM

Watch Alex Turner play it on youtube cause the way it is tabbed is what he plays.

+1 reply
soupdragon 303 Nov 08, 2007 12:25 PM

Brilliant tab mate, sounds perfect to me.

guest
You may want to rate the tab now too:
select rating
Wanna post a correction for this tab? Suggest correction