Oops, an error
Loading. Please wait.

View From The Afternoon Bass Tab

version 1
version 1
405 views 1 this week
no commentswrite comment
1 2 3 4 5
3 more votes to show rating
add to favorites
launch autoscroll
font size
0
reset
guitar tuner
Autoscroll
slow
fast
+/-
esc
set tempo
stop
Help us to improve Ultimate-Guitar.com Take our survey!
×
Author
Difficulty
intermediate
This tab relates to a majority of 2010 performances of View From The Afternoon :) 
Just thought that middle bit was cool

G|--------------------------------------|
D|--------------------------------------|
A|0-0-0-0-0-0-0-0-0-0-0-0-6--6--66666666|x2
E|--------------------------------------|

G|-------------------|  |--------------|
D|----7-7-5-5-/10-10-|  |--------------|
A|0-0----------------|x3|6--6--66666666|
E|-------------------|  |--------------|

G|-------------------|
D|----7-7-5-5-/10-10-|
A|0-0----------------|
E|-------------------|

Rest

G|----------------|
D|----------------|
A|0-0-7-7-5-5-----|
E|------------8-8-|

G|------------------------------|  |----------------------------|
D|------------3-----2-2-----2-2-|  |------------3-----2-2-----2-|
A|--------3-3----0------2-2-----|x2|--------3-3----0------3-5---|
E|5-5-3-3-----------------------|  |5-5-3-3---------------------|

G|--------------------------------|
D|------------3-3-----2-2---------|
A|--------3-3-----0-0-----5-5-3-3-|
E|5-5-3-3-------------------------|

G|--------------------|  |----------------------------------------------------|
D|--------------------|  |----------------------------------------------------|
A|--------------------|x2|-------------/7--7-------------------------7--5--3--|
E|5--5-5x3--3-3x0--0--|  |5--5-5x3--3-3x------------5--5-5x3--3-3x0-----------|

Rest

G|-------------------------|
D|-------------------------|
A|/12-12-12-12-12-12-12-12-|
E|-------------------------|

G|------------------------------|  |----------------------------|
D|------------3-----2-2-----2-2-|  |------------3-----2-2-----2-|
A|--------3-3----0------2-2-----|x2|--------3-3----0------3-5---|
E|5-5-3-3-----------------------|  |5-5-3-3---------------------|

G|--------------------------------------|
D|------------3-3-----2-2---------------|
A|--------3-3-----0-0-----5-5-3-3-0-----|
E|5-5-3-3-------------------------------|

G|----------------------------------------------------------------|
D|----------------------------------------------------------------|
A|8-8-8-8-8-8-8-8-8-8-8-8-8-8-8-7-5-5-5-5-5-5-5-5-5-5-5-5-5-5-5-7-|
E|----------------------------------------------------------------|

G|------------------------------------------------------------------------|
D|------------------------------------------------------------------------|
A|8-8-8-8-8-8-8-8-8-8-8-8-8-8-8-7-5-5-5-5-5-5-5-5/17-17-17-17-17-17-17-17-|
E|------------------------------------------------------------------------|

(Off beat notes)
G|--------------------------------------------------|
D|--------------------------------------------------|
A|--8--8--8--8--8--8--8--8--5--5--5--5--5--5--5--5--|
E|--------------------------------------------------|

G|----------------------------------------------------------|
D|----------------------------------------------------------|
A|--8--8--8--8--8--8--8--8--5-5-5-5-5-5-5-5-5-5-5-5-5-5-5-5-|
E|----------------------------------------------------------|

G|--------------------|
D|--------------------|
A|--------------------|x2
E|5--5-5x3--3-3x0--0--|  

G|------------------------------------------------------------------------------------------|
D|------------------------------------------------------------------------------------------|
A|------------------------------------------------------------------------------------------|
E|5--5-5x3--3-3x555------555------555------555------555------555------555------555------555-|

G|------------|  |------------------------------------|
D|------0h2h3-|  |------------------------------------|
A|0h2h3-------|x2|------------------------------------|
E|------------|  |555------555------555------555------|

G|------------------------------------------|
D|------------------------------------------|
A|777---555---333---7-5-3-5-3-------7-5~----|
E|----------------------------7-8-5---------|

Rest

G|----------|
D|----------|
A|/12-12-12-|
E|----------|

G|------------------------------|  |----------------------------|
D|------------3-----2-2-----2-2-|  |------------3-----2-2-----2-|
A|--------3-3----0------2-2-----|x2|--------3-3----0------3-5---|
E|5-5-3-3-----------------------|  |5-5-3-3---------------------|

G|--------------------------------------|
D|------------3-3-----2-2---------------|
A|--------3-3-----0-0-----5-5-3-3-0-----|
E|5-5-3-3-------------------------------|

G|----------------------------------------------------------------|
D|----------------------------------------------------------------|
A|8-8-8-8-8-8-8-8-8-8-8-8-8-8-8-7-5-5-5-5-5-5-5-5-5-5-5-5-5-5-5-7-|
E|----------------------------------------------------------------|

G|------------------------------------------------------------------------|
D|------------------------------------------------------------------------|
A|8-8-8-8-8-8-8-8-8-8-8-8-8-8-8-7-5-5-5-5-5-5-5-5/17-17-17-17-17-17-17-17-|
E|------------------------------------------------------------------------|

(Off beat notes)
G|--------------------------------------------------|
D|--------------------------------------------------|
A|--8--8--8--8--8--8--8--8--5--5--5--5--5--5--5--5--|
E|--------------------------------------------------|

G|------------------------------------------------------------------------|
D|------------------------------------------------------------------------|
A|8-8-8-8-8-8-8-8-8-8-8-8-8-8-8-7-5-5-5-5-5-5-5-5/17-17-17-17-17-17-17-17-|
E|------------------------------------------------------------------------|

G|--------------------------------------|
D|--------------------------------------|
A|0-0-0-0-0-0-0-0-0-0-0-0-6--6--66666666|x2
E|--------------------------------------|

G|-------------------|  |--------------|
D|----7-7-5-5-/10-10-|  |--------------|
A|0-0----------------|x3|6--6--66666666|
E|-------------------|  |--------------|

G|-----------------------------|
D|----7-7-5-5-/10-10-----------|
A|0-0--------------------------|
E|-------------------4----5~---|
Suggest correction
Give kudos to tab author, rate the tab!
1 2 3 4 5
comments
print report bad tab
guest
You may want to rate the tab now too:
select rating
Wanna post a correction for this tab? Suggest correction