Oops, an error
Loading. Please wait.

View From The Afternoon Bass Tab

version 2
version 2
1,687 views 1 this week
no commentswrite comment
1 2 3 4 5
please rate
add to favorites
launch autoscroll
font size
0
reset
guitar tuner
Autoscroll
slow
fast
+/-
esc
set tempo
stop
Help us to improve Ultimate-Guitar.com Take our survey!
×
Author
Difficulty
novice
-------------------------------------------------------------------------------
	       THE VIEW FROM THE AFTERNOON - Arctic Monkeys
-------------------------------------------------------------------------------

Tabbed By : Jordan Rooney
e-mail: rooneyj10@hotmail.com / rooneyj@gmail.com

Intro (0:01)
G|-------------------------------------------------------------------||
D|-------------------------------------------------------------------|| 
A|-------------------------------------------------------------------||
E|--555555555555555555555555------555555555555555555555555-----------||

(0:14)
G|-------------------------------------------------------------------||
D|-------------------------------------------------------------------|| (x2)
A|-------------5-----------------------------------------------------||
E|----5555-3-5-------------------------------------------------------||

G|-------------------------------------------------------------------||
D|-------------------------------------------------------------------|| 
A|-------------5-----------------------------------------------------||
E|----5555-3-5-------------------------------------------------------||

(0:33)
G|-------------------------------------------------------------------||
D|-------------------------------------------------------------------||
A|-------------------------------------------------------------------||
E|----55555555-------------------------------------------------------||

(Verse 0:35)
G|-------------------------------------------------------------------||
D|-------------------------------------------------------------------|| (x4)
A|----------33-7-----7---2-2-2--7------------------------------------||
E|----55-33-------55-------------------------------------------------||

Break (0:48)
G|-------------------------------------------------------------------||
D|-------------------------------------------------------------------|| (x3) 
A|-------------------------------------------------------------------||
E|-----55--33333-00--------------------------------------------------||

(1:13)
G|-------------------------------------------------------------------||
D|-------------------------------------------------------------------||
A|-------------------------------------------------------------------||
E|----55555555-------------------------------------------------------||

Verse (1:15)
G|-------------------------------------------------------------------||
D|-------------------------------------------------------------------|| (x4)
A|----------33-7-----7---2-2-2--7------------------------------------||
E|----55-33-------55-------------------------------------------------||


Chorus (1:29)
G|-------------------------------------------------------------------||
D|-------------------------------------------------------------------|| (x2)
A|---8888888888888888---5555555555555555-----------------------------||
E|-------------------------------------------------------------------||

Chorus (1:43)
G|-------------------------------------------------------------------||
D|-------------------------------------------------------------------|| (x2)
A|---8-8-8-8-8-8-8-8---5-5-5-5-5-5-5-5-------------------------------||
E|-------------------------------------------------------------------||

Break (1:56)
G|-------------------------------------------------------------------||
D|-------------------------------------------------------------------|| (x3) 
A|-------------------------------------------------------------------||
E|-----55--33333-00--------------------------------------------------||

(2:30)
G|-------------------------------------------------------------------||
D|-------------------------------------------------------------------||
A|-------------------------------------------------------------------||
E|----55555555-------------------------------------------------------||

Verse (2:31)
G|-------------------------------------------------------------------||
D|-------------------------------------------------------------------|| (x3)
A|--------------3-3--7-7-------7-7--2-2--7-7-------------------------||
E|----5-5--3-3------------5-5----------------------------------------||

Chorus (2:46)
G|-------------------------------------------------------------------||
D|-------------------------------------------------------------------|| (x2)
A|---8-8-8-8-8-8-8-8---5-5-5-5-5-5-5-5-------------------------------||
E|-------------------------------------------------------------------||

Chorus (2:59)
G|-------------------------------------------------------------------||
D|-------------------------------------------------------------------||
A|---8-8-8-8-8-8-8-8---5-5-5-5-5-5-5-5-------------------------------||
E|-------------------------------------------------------------------||

Chorus (3:06)
G|-------------------------------------------------------------------||
D|-------------------------------------------------------------------|| (x2)
A|---8-8-8-8-8-8-8-8---5-5-5-5-5-5-5-5-------------------------------||
E|-------------------------------------------------------------------||


Outro (3:13)
G|-------------------------------------------------------------------||
D|-------------------------------------------------------------------|| 
A|-------------------------------------------------------------------||
E|--555555555555555555555555------555555555555555555555555-----------||

(Outro 3:19)
G|-------------------------------------------------------------------||
D|-------------------------------------------------------------------|| (x2)
A|-------------5-----------------------------------------------------||
E|----5555-3-5-------------------------------------------------------||

G|-------------------------------------------------------------------||
D|-------------------------------------------------------------------|| 
A|-------------5-----------------------------------------------------||
E|----5555-3-5--------------5----------------------------------------||


| /  slide up
| \  slide down
| h  hammer-on
| p  pull-off
| ~  vibrato
| +  harmonic
| x  Mute note
===============================================================================
Suggest correction
What's this?
You can suggest a correction to this tab. Community and Mods will review your correction and vote to approve or reject it.
comments
We did not receive enough feedback on this tab! Please rate:
print report bad tab
1 2 3 4 5
guest
You may want to rate the tab now too:
select rating
Please do not post tabs as comments. Select "correction" instead!