Oops, an error
Loading. Please wait.

View From The Afternoon Bass Tab

version 3
version 3
6,128 views 1 this week
no commentswrite comment
1 2 3 4 5
please rate
add to favorites
launch autoscroll
font size
0
reset
guitar tuner
Autoscroll
slow
fast
+/-
esc
set tempo
stop
Help us to improve Ultimate-Guitar.com Take our survey!
×
Author
Difficulty
THE VIEW FROM THE AFTERNOON
Arctic Monkeys

Taken from the Domino album Whatever People Say I Am, That's What I'm Not (2006)

Transcribed by: Damian Pamminger (TwitcheD_85@hotmail.com)

Standard tuning: E A D G

Pause

 Fig, 1a
|  --------------------------------------------------8--8---8-8-8-8----| 2x
|-7-7-7-7-7-7-7-7-7-7-7-7-7-7-7-7-7-7-7-7-7-7-7-7-8--8---8-8-8-8-------|
|-0-0-0-0-0-0-0-0-0-0-0-0-0-0-0-0-0-0-0-0-0-0-0-0----------------------|
|----------------------------------------------------------------------|

|------------------------------------------------------------8--8---8-8-8-8---|
|-----7-7-5-5/-10-10-----7-7-5-5/-10-10-----7-7-5-5/-10-10-8--8---8-8-8-8-----|
|-0-0----------------0-0-----------------0-0----------------------------------|
| ----------------------------------------------------------------------------|

|-----------------------|
|-----7-7-5-5/-10-10----|
|-0-0-------------------|
|-----------------------|

Pause

|--------------------|
|--------------------|
|-0-0-7-7-5-5-3-3----|
|--------------------|

 Fig. 2
|------------------------------------| 2x
|-----5-------3-------2-------2------|
|-0-----0-3-3-----0-----0-2-2--------|
|------------------------------------|

| --------------------------------------------------------------------|
|-----5-------3-------2---------------5--------3-------2--------------|
|-0-----0-3-3-----0-----0-3--5--7-0-----0-3-3-----0-----0-5-5-3-3-----|
|---------------------------------------------------------------------|

 Fig. 3a
|--------------------------------| 3x
|--------------------------------|
|--------------------------------|
|-5--5-5-3-3-3-3-0---0-----------|

|-----------------------------|
|-----------------------------|
|--------------------7--5--3--|
|-5--5-5-3-3-3-3-0----------- |

Pause

|-------------------------------|
|-------------------------------|
|-0/12-12-12-12-12-12-12-12-----|
|-------------------------------|

Play Fig. 2

|---|
|---|
|---|
|-5-|

Pause

 Fig. 4a
|--------------------------------------------------------------------|
|-3-3-3-3-3-3-3-3-3-3-3-3-3-3--2-0-0-0-0-0-0-0-0-0-0-0-0-0-0-0-0-----|
| -----------------------------3-------------------------------------|
|--------------------------------------------------------------------|

| -------------------------------------------------------------------------------|
|-3-3-3-3-3-3-3-3-3-3-3-3-3-3--2-0-0-0-0-0-0-0-0/-12-12-12-12-12-12-12-12-\------|
| -----------------------------3-------------------------------------------------|
|--------------------------------------------------------------------------------|

|-----------------------------------------------------------------------------------|
|--3---3---3---3---3---3---3---3---0---0---0---0---0---0---0---0---3---3---3---3----|
|-----------------------------------------------------------------------------------|
|-----------------------------------------------------------------------------------|

|---------------------------------------------------|
|-3---3---3---3-0-0-0-0-0-0-0-0-0-0-0-0-0-0-0-0-----|
|---------------------------------------------------|
|---------------------------------------------------|

Fig. 3b
|--------------------------------| 2x
|--------------------------------|
|--------------------------------|
|-5--5-5-3-3-3-3-0---0-----------|

|-------------------------------------|
|-------------------------------------|
|-------------------------------------|
|-5--5-5-3-3-3-3/-12---12---\---------|

|----------------------------------------------------------|
|----------------------------------------------------------|
|--------------------7--5--3-------------------------------|
|-5--5-5-3-3-3-3-0-----------------------------------------|

Pause

|---------------|
|-7--7-7-7-7----|
|---------------|
|---------------|

Play Fig.2

|---|
|---|
|---|
|-5-|

Pause

 Fig. 4b
|--------------------------------------------------------------------|
|-3-3-3-3-3-3-3-3-3-3-3-3-3-3--2-0-0-0-0-0-0-0-0-0-0-0-0-0-0-0-0-----|
| -----------------------------3-------------------------------------|
|--------------------------------------------------------------------|

| -------------------------------------------------------------------------------|
|-3-3-3-3-3-3-3-3-3-3-3-3-3-3--2-0-0-0-0-0-0-0-0/-12-12-12-12-12-12-12-12-\------|
| -----------------------------3-------------------------------------------------|
|--------------------------------------------------------------------------------|

|----------------------------------------------------------| Pause
|--3---3---3---3---3---3---3---3---0---0---0---0---0---0---|
|----------------------------------------------------------|
|----------------------------------------------------------|

|---------------------------------------------------7-7-7-7-7-7-7-7----|
|-3-3-3-3-3-3-3-3-3-3-3-3-3-3-3-3-0-0-0-0-0-0-0-0----------------------|
|----------------------------------------------------------------------|
|----------------------------------------------------------------------|

 Fig. 1b
|  --------------------------------------------------8--8---8-8-8-8--|
|-7-7-7-7-7-7-7-7-7-7-7-7-7-7-7-7-7-7-7-7-7-7-7-7-8--8---8-8-8-8-----|
|-0-0-0-0-0-0-0-0-0-0-0-0-0-0-0-0-0-0-0-0-0-0-0-0--------------------|
|--------------------------------------------------------------------|

|------------------------------------------------------------8--8---8-8-8-8---|
|-----7-7-5-5/-10-10-----7-7-5-5/-10-10-----7-7-5-5/-10-10-8--8---8-8-8-8-----|
|-0-0----------------0-0-----------------0-0----------------------------------|
| ----------------------------------------------------------------------------|

|--------------------------| Pause
|-----7-7-5-5/-10-10-------|
|-0-0-----------------11-\-|
|--------------------------|

 End
|------------------------------|
|------------------------------|
|-0----------------------------|
|------------------------------|
Suggest correction
Give kudos to tab author, rate the tab!
1 2 3 4 5
comments
print report bad tab
guest
You may want to rate the tab now too:
select rating
Wanna post a correction for this tab? Suggest correction