Oops, an error
Loading. Please wait.

View From The Afternoon Bass Tab

version 4
version 4
50,800 views 36 this week
7 commentsread comments
1 2 3 4 5
x 56
add to favorites
launch autoscroll
font size
0
reset
guitar tuner
Autoscroll
slow
fast
+/-
esc
set tempo
stop
Help us to improve Ultimate-Guitar.com Take our survey!
×
Author
Difficulty
intermediate
Tuning: EADG

(00:01)
G|----------------------------------|
D|----------------------------------|  (x2)
A|------------------------6-6-66666-|
E|-5555555555555555555555-----------|

G|--------------------|
D|-----7-7-5-5/-10-10-|  (x3)
A|-0-0----------------|
E|--------------------|

G|-----------|
D|-----------|  
A|-6-6-66666-|
E|-----------|

G|--------------------|
D|-----7-7-5-5/-10-10-|  
A|-0-0----------------|
E|--------------------|
  
(00:33)
G|-------------|
D|-------------|
A|----77-55-33-|
E|-55----------|

G|---------------------|
D|---------3---22----2-|  (x2)
A|------33---0----22---|
E|-5-33----------------|

G|----------------------|
D|---------3---22-----2-|  
A|------33---0----3-5---|
E|-5-33-----------------|

G|----------------------|
D|---------3---22-------|  
A|------33---0----55-33-|
E|-5-33-----------------|

G|---------------|
D|---------------|  (x2)
A|---------------|
E|-5-55-3-33-0-0-|

G|-----------------|
D|-----------------|  (12's not 1, 2's)
A|-----------------|
E|-5-55-3-33/12-12-|

G|-------------------|
D|-------------------|  
A|---------------5-3-|
E|-5-55-3-33-0-0-----|

(01:12)
G|-------------------|
D|-------------------|  (12's not 1, 2's)
A|-/1212121212121212-|
E|-------------------|

G|---------------------|
D|---------3---22----2-|  (x2)
A|------33---0----22---|
E|-5-33----------------|

G|----------------------|
D|---------3---22-----2-|  
A|------33---0----3-5---|
E|-5-33-----------------|

G|-----------------------|
D|---------3---22--------|  
A|------33---0----55-33--|
E|-5-33-----------------5|

(01:29)
G|-----------------------------------|
D|-----------------------------------|
A|-8888888888888887-5555555555555555-|
E|-----------------------------------|

G|--------------------------------------------|
D|--------------------------------------------|   (17's not 1, 7's)
A|-8888888888888887-55555555/1717171717171717-|
E|--------------------------------------------|

G|---------------------------------|
D|---------------------------------|
A|-8-8-8-8-8-8-8-8-5-5-5-5-5-5-5-5-|
E|---------------------------------|

G|---------------------------|
D|---------------------------|
A|-8-8-8-8-8-8-8-8-555555555-|
E|---------------------------|

G|---------------|
D|---------------|  (x2)
A|---------------|
E|-5-55-3-33-0-0-|

G|------------------|
D|------------------|  (12's not 1, 2's)
A|------------------|
E|-5-55-3-33/12-12\-|

G|--------------------|
D|--------------------|  
A|---------------5-3~-|
E|-5-55-3-33-0-0------|
  
(02:29)
G|-------------------|
D|-------------------|  (12's not 1, 2's)
A|-121212------------|
E|-------------------|

G|---------------------|
D|---------3---22----2-|  (x2)
A|------33---0----22---|
E|-5-33----------------|

G|----------------------|
D|---------3---22-----2-|  
A|------33---0----3-5---|
E|-5-33-----------------|

G|-----------------------|
D|---------3---22--------|  
A|------33---0----55-33--|
E|-5-33-----------------5|

G|-----------------------------------|
D|-----------------------------------|
A|-8888888888888887-5555555555555555-|
E|-----------------------------------|

G|--------------------------------------------|
D|--------------------------------------------|   (17's not 1, 7's)
A|-8888888888888887-55555555/1717171717171717-|
E|--------------------------------------------|

G|-----------------------------|
D|-----------------------------|
A|-8-8-8-8-8-8-8-8-5-5-5-5-5-5-|
E|-----------------------------|

G|--------------------------------------------|
D|--------------------------------------------|   (17's not 1, 7's)
A|-8888888888888887-55555555/1717171717171717-|
E|--------------------------------------------|
  
(03:12)
G|----------------------------------|
D|----------------------------------|  
A|------------------------6-6-66666-|
E|-5555555555555555555555-----------|

G|--------------------|
D|-----7-7-5-5/-10-10-|  
A|-0-0----------------|
E|--------------------|

G|-----------|
D|-----------|  
A|-6-6-66666-|
E|-----------|

G|-------------------------|
D|-----7-7-5-5/-10-10------|  
A|-0-0------------------0~-|
E|--------------------4----|


************************************

| /  Slide up
| \  Slide down
| ~  Vibrato

************************************
Suggest correction
comments
print report bad tab
7 comments total. Showing first comments.
+1 reply
matty_boy_2 62 Mar 18, 2006 05:52 PM

best of all the tabs here, cant believe no1 else has rated it! gr8 job mate, well done

+1 reply
mikethecoug 259 Mar 23, 2006 03:53 PM

Very accurate. Good stuff.

+1 reply
punkextremest 47 May 03, 2006 12:35 PM

great tab, best hear by far!!

guest
You may want to rate the tab now too:
select rating
Wanna post a correction for this tab? Suggest correction