Oops, an error
Loading. Please wait.

View From The Afternoon Tab

version 4
version 4
133,748 views 66 this week
18 commentsread comments
1 2 3 4 5
x 58
add to favorites
launch autoscroll
font size
0
reset
how to read this tab
guitar tuner
Autoscroll
slow
fast
+/-
esc
set tempo
stop
Help us to improve Ultimate-Guitar.com Take our survey!
×
Author
Difficulty
novice
[Intro]

Both Guitars

e|-----------|-----------|-----------|---------------------|
B|-----------|-----------|-----------|---------------------|
G|-----------|-----------|-----------|-8----8----8888-8888-|
D|-7777-7777-|-7777-7777-|-7777-7777-|-8----8----8888-8888-|    x3
A|-7777-7777-|-7777-7777-|-7777-7777-|-8----8----6666-6666-|
E|-5555-5555-|-5555-5555-|-5555-5555-|-6----6----6666-6666-|

Then 

e|-----------|
B|-----------|
G|-----------|
D|-7777-7777-|
A|-7777-7777-|
E|-5555-5555-|


[Verse 1]

(Electric guitar 1 ,clean)

e|---------------|-------------|
B|---------------|-------------|
G|-------55-1010-|----99-------|
D|-77-55-55-1010-|-77-99-9-9-9-| X2
A|-77-55-33-8-8--|-77-77-9-9-9-|
E|-55-33-33------|-55----7-7-7-|

Then

e|---------------|--------------|
B|---------------|--------------|
G|-------55-1010-|----99--5-7-9-| Both guitars play last three chords.
D|-77-55-55-1010-|-77-99--5-7-9-| 
A|-77-55-33-8-8--|-77-77--3-5-7-|
E|-55-33-33------|-55-----3-5-7-|


e|---------------|--------------|
B|---------------|--------------|
G|-------55-1010-|------99-77-5-|
D|-77-55-55-1010-|---77-99-77-5-|
A|-77-55-33-8-8--|---77-77-55-3-|
E|-55-33-33------|---55----55-3-|

2nd part of Verse 1
e|---------------|-------------|---------------|----------------|
B|---------------|-------------|---------------|----------------|
G|-------55-1010-|----99----99-|-------55-1010-|----99----99----|
D|-77-55-55-1010-|-77-99-99-99-|-77-55-55-1010-|-77-99-99-99----|
A|-77-55-33-8-8--|-77-77-99-77-|-77-55-33-8-8--|-77-77-99-77----|
E|-55-33-33------|-55----77----|-55-33-33------|-55----77-------|
 |               |             |               |                |
e|---------------|-------------|---------------|----------------| Electric
B|---------------|-------------|---------------|----------------| guitar 1
G|---------------|-------------|---------------|----------------| (clean)
D|-7-------------|-------------|-7-------------|-------------77-| plays 
A|-7-------------|-------------|-7-------------|-------------77-| the bottom
E|-5-------------|-------------|-5-------------|-------------55-| section.

e|---------------|---------------|---------------|--------------|
B|---------------|---------------|---------------|--------------|
G|-------55-1010-|----99--5-7-9--|-------55-1010-|----99-77-5---| 
D|-77-55-55-1010-|-77-99--5-7-9--|-77-55-55-1010-|-77-99-77-5---|
A|-77-55-33-8-8--|-77-77--3-5-7--|-77-55-33-8-8--|-77-77-55-3---|
E|-55-33-33------|-55-----3-5-7--|-55-33-33------|-55----55-3---|
 |               |               |               |              |
e|---------------|---------------|---------------|--------------|
B|---------------|---------------|---------------|--------------|
G|---------------|--------5-7-9--|---------------|--------------|
D|-7xx7xx7xx7xx--|-7xx7xx-5-7-9--|-7xx7xx7xx7xx--|-7xx7xx7xx7xx-|
A|-7xx7xx7xx7xx--|-7xx7xx-3-5-7--|-7xx7xx7xx7xx--|-7xx7xx7xx7xx-|
E|-5xx5xx5xx5xx--|-5xx5xx--------|-5xx5xx5xx5xx--|-5xx5xx5xx5xx-|


[Pre-Chorus]

(both guitars on distortion)

e|----------|-----------|----------|------------|----------|-------------|
B|----------|-----------|----------|------------|----------|-------------|
G|----------|-----------|----------|------------|----------|-------------|
D|-77-55-22-|-----------|-77-55-22-|------------|-77-55-22-|-------------|
A|-77-55-22-|-----------|-77-55-22-|------------|-77-55-22-|-------------|
E|-55-33-00-|-----------|-55-33-00-|------------|-55-33-00-|-------------|
 |          |           |          |            |          |             |
e|----------|-----------|----------|------------|----------|-------------|
B|----------|-----------|----------|------------|----------|-------------|
G|----------|-----------|----------|------------|----------|-------------|
D|-22-------|-----------|-22-------|---------10-|-22-------|-------------|
A|-00-------|-2/12\10\7-|-00-------|-12121012---|-00-------|-141414-10-7-|
E|-00-33-00-|-----------|-00-33-00-|------------|-00-33-00-|-------------|

e|----------|-------|
B|----------|-------|
G|----------|-------|
D|-77-55-22-|-------|
A|-77-55-22-|-------|
E|-55-33-00-|-------|
            |       |
e|----------|-------|
B|----------|-------|
G|----------|-------|
D|-22-------|-------|
A|-00-------|-7-5\3-|
E|-00-33-00-|-------|


[Verse 2]

(Both guitars clean)

e|----------|---------|
B|----------|---------|
G|-------10-|---9---9-|
D|---5---10-|---9---9-|
A|---5---8--|---7---7-|
E|---3------|---------|
 |          |         |   x2
e|----------|---------|
B|----------|---------|
G|-----5----|---------|
D|-7---5----|-7---9---|
A|-7---3----|-7---9---|
E|-5---3----|-5---7---|


Then

e|----------|------------|--------------------|
B|----------|------------|--------------------|
G|-------10-|---99-5-7-9-|-------10---9---5---|
D|---5---10-|---99-5-7-9-|---5---10---9---5---|
A|---5---8--|---77-3-5-7-|---5---8----7---3---|
E|---3------|------3-5-7-|---3----------------|
 |          |            |                    |
e|----------|------------|--------------------|
B|----------|------------|--------------------|
G|-----5----|---99-5-7-9-|-----5--------7-----|
D|-7---5----|-7-99-5-7-9-|-7---5----7---7---7-|
A|-7---3----|-7-77-3-5-7-|-7---3----7---5---7-|
E|-5---3----|-5----3-5-7-|-5---3----5---5---5-|


[Chorus]

(both guitars clean)

e|---------------|---------------|----------------|--------------|
B|---------------|---------------|----------------|--------------|
G|-10101010101010|-10101010101010|-777777777777777|-7777777777777|
D|-10101010101010|-10101010101010|-777777777777777|-7777777777777|
A|-8-8-8-8-8-8-8-|-8-8-8-8-8-8-8-|-555555555555555|-5555555555555|
E|---------------|---------------|----------------|--------------|
 |               |               |                |              |  x2
e|---------------|---------------|----------------|--------------|
B|------3--5-3---|-----3--5--3---|-------3--5-3---|-----3--5-3---|
G|----5--------5-|---5-----------|----5---------5-|---5----------|
D|--3------------|-3-------------|--3-------------|-3------------|
A|---------------|---------------|----------------|--------------|
E|---------------|---------------|----------------|--------------|

e|---------------|----------------|----------------|----------------|
B|---------------|----------------|----------------|----------------|
G|-10--10--10--10|--10--10--10--10|--7---7---7---7-|--7---7---7---7-|
D|-10--10--10--10|--10--10--10--10|--7---7---7---7-|--7---7---7---7-|
A|-8---8---8---8-|--8---8---8---8-|--5---5---5---5-|--5---5---5---5-|
E|---------------|----------------|----------------|----------------|
 |               |                |                |                |
e|---------------|----------------|--3---3---3---3-|--3---3---3---3-|
B|---------------|----------------|--2---2---2---2-|--2---2---2---2-|
G|-2---2---2---2-|--2---2---2---2-|--3---3---3---3-|--3---3---3---3-|
D|-3---3---3---3-|--3---3---3---3-|--0---0---0---0-|--0---0---0---0-|
A|-3---3---3---3-|--3---3---3---3-|----------------|----------------|
E|-1---1---1---1-|--1---1---1---1-|----------------|----------------|

e|---------------|----------------|----------|---------|
B|---------------|----------------|----------|---------|
G|-10--10--10--10|--10--10--10--10|--7-7-7-7-|-7-7-7-7-|
D|-10--10--10--10|--10--10--10--10|--7-7-7-7-|-7-7-7-7-|
A|-8---8---8---8-|--8---8---8---8-|--5-5-5-5-|-5-5-5-5-|
E|---------------|----------------|----------|---------|
 |               |                |          |         |
e|---------------|----------------|--3-3-3-3-|-3-3-3-3-|
B|---------------|----------------|--2-2-2-2-|-2-2-2-2-|
G|-2---2---2---2-|--2---2---2---2-|--3-3-3-3-|-3-3-3-3-|
D|-3---3---3---3-|--3---3---3---3-|--0-0-0-0-|-0-0-0-0-|
A|-3---3---3---3-|--3---3---3---3-|----------|---------|
E|-1---1---1---1-|--1---1---1---1-|----------|---------|

Repeat Post chorus


[Bridge]

(clean)

e|----------|---------|
B|----------|---------|
G|-------10-|---9---9-|
D|---5---10-|---9---9-|
A|---5---8--|---7---7-|
E|---3------|---------|
 |          |         |  x3
e|----------|---------|
B|----------|---------|
G|-----5----|-----9---|
D|-7---5----|-7---9---|
A|-7---3----|-7---9---|
E|-5---3----|-5---7---|

Then

e|----------|---------|
B|----------|---------|
G|-------10-|---9---5-|
D|---5---10-|---9---5-|
A|---5---8--|---7---3-|
E|---3------|---------|
 |          |         |
e|----------|---------|
B|----------|---------|
G|-----5----|-----7---|
D|-7---5----|-7---7---|
A|-7---3----|-7---5---|
E|-5---3----|-5---5---|


[Verse 3]

(both guitars play, clean.)

e|---------------|-----------|
B|---------------|-----------|
G|-------55-1010-|----99-----|
D|-77-55-55-1010-|-77-99-99--|  x2
A|-77-55-33-8-8--|-77-77-99--|
E|-55-33-33------|-55----77--|

e|---------------|--------------|
B|---------------|--------------|
G|-------55-1010-|----99--5-7-9-| 
D|-77-55-55-1010-|-77-99--5-7-9-| 
A|-77-55-33-8-8--|-77-77--3-5-7-|
E|-55-33-33------|-55-----3-5-7-|


e|---------------|--------------|
B|---------------|--------------|
G|-------55-1010-|------99-77-5-|
D|-77-55-55-1010-|---77-99-77-5-|
A|-77-55-33-8-8--|---77-77-55-3-|
E|-55-33-33------|---55----55-3-|


[Chorus]

(both guitars clean)

e|---------------|---------------|----------------|--------------|
B|---------------|---------------|----------------|--------------|
G|-10101010101010|-10101010101010|-777777777777777|-7777777777777|
D|-10101010101010|-10101010101010|-777777777777777|-7777777777777|
A|-8-8-8-8-8-8-8-|-8-8-8-8-8-8-8-|-555555555555555|-5555555555555|
E|---------------|---------------|----------------|--------------|
 |               |               |                |              |  x2
e|---------------|---------------|----------------|--------------|
B|------3--5-3---|-----3--5--3---|-------3--5-3---|-----3--5-3---|
G|----5--------5-|---5-----------|----5---------5-|---5----------|
D|--3------------|-3-------------|--3-------------|-3------------|
A|---------------|---------------|----------------|--------------|
E|---------------|---------------|----------------|--------------|

e|---------------|----------------|----------------|-------------|
B|---------------|----------------|----------------|-------------|
G|-10--10--10--10|--10--10--10--10|--7---7---7---7-|--7---7------|
D|-10--10--10--10|--10--10--10--10|--7---7---7---7-|--7---7------|
A|-8---8---8---8-|--8---8---8---8-|--5---5---5---5-|--5---5------|
E|---------------|----------------|----------------|-------------|
 |               |                |                |             |
e|---------------|----------------|--3---3---3---3-|--3---3------|
B|---------------|----------------|--2---2---2---2-|--2---2------|
G|-2---2---2---2-|--2---2---2---2-|--3---3---3---3-|--3---3------|
D|-3---3---3---3-|--3---3---3---3-|--0---0---0---0-|--0---0------|
A|-3---3---3---3-|--3---3---3---3-|----------------|-------------|
E|-1---1---1---1-|--1---1---1---1-|----------------|-------------|

e|---------------|----------------|----------------|----------------|
B|---------------|----------------|----------------|----------------|
G|-10101010101010|-10101010101010-|7777777777777777|7777777777777777|
D|-10101010101010|-10101010101010-|7777777777777777|7777777777777777|
A|-8-8-8-8-8-8-8-|-8-8-8-8-8-8-8--|5555555555555555|5555555555555555|
E|---------------|----------------|----------------|----------------|
 |               |                |                |                |
e|---------------|----------------|--3---3---3---3-|--3---3---3---3-|
B|---------------|----------------|--2---2---2---2-|--2---2---2---2-|
G|-2---2---2---2-|--2---2---2---2-|--3---3---3---3-|--3---3---3---3-|
D|-3---3---3---3-|--3---3---3---3-|--0---0---0---0-|--0---0---0---0-|
A|-3---3---3---3-|--3---3---3---3-|----------------|----------------|
E|-1---1---1---1-|--1---1---1---1-|----------------|----------------|


[Outro]

(both guitars on distortion)

e|-----------|-----------|-----------|---------------------|
B|-----------|-----------|-----------|---------------------|
G|-----------|-----------|-----------|-8----8----8888-8888-|
D|-7777-7777-|-7777-7777-|-7777-7777-|-8----8----8888-8888-|  x2
A|-7777-7777-|-7777-7777-|-7777-7777-|-8----8----6666-6666-|
E|-5555-5555-|-5555-5555-|-5555-5555-|-6----6----6666-6666-|


e|-----------|-----------|-----------|
B|-----------|-----------|--2--------|
G|-----------|-5---------|--1--------|
D|-7777-7777-|-6---------|--2--------|
A|-7777-7777-|-6---------|--0--------|
E|-5555-5555-|-4---------|-----------|



************************************

| x  Dead note
| /  Slide up
| \  Slide down    

************************************
Suggest correction
comments
print report bad tab
18 comments total. Showing first comments.
+1 reply
San Miguel 106 Mar 15, 2007 06:56 AM

very nicely done

0 reply
Daniel Pearce 222 Mar 15, 2007 03:43 PM

Yeh - very professional LOL.

0 reply
Daniel Pearce 222 Mar 15, 2007 03:43 PM

5 Star mate

guest
You may want to rate the tab now too:
select rating
Wanna post a correction for this tab? Suggest correction