Oops, an error
Loading. Please wait.

View From The Afternoon Bass Tab

version 5
version 5
3,255 views 1 this week
no commentswrite comment
1 2 3 4 5
worth learning
x 3
add to favorites
launch autoscroll
font size
0
reset
guitar tuner
Tab Pro tools
  • play this tab
  • loop segment
  • change instrument
  • show fretboard
  • metronome
Autoscroll
slow
fast
+/-
esc
set tempo
stop
Contributor
Difficulty
novice
 Arctic Monkeys - The View From The Afternoon,from Whatever People Say I Am, That's What I'm Not(2006)
 its a class song and the bass in it is fairly cool!
 im 99% sure that this is correct,please rate it!!
 eddienolan89

 INTRO
 G|------------------------------------------------|
 D|--------------------------13-13-1313131313131313|  
 A|-000000000000000000000000-----------------------| X2
 E|------------------------------------------------|

 G|-----------------------|       G|------------------------|
 D|-----------------------|       D|-13-13-1313131313131313-|
 A|-0-0-12-12\10-10/15-15-| X3    A|------------------------|
 E|-----------------------|       E|------------------------|

 G|-----------------------|
 D|-----------------------|  
 A|-0-0-12-12\10-10/15-15-|
 E|-----------------------|

  
 VERSE(listen for when to come in)
 G|---------------|
 D|-----2-2-0-0---|  
 A|-0-0---------3-|
 E|---------------|

 G|----------------------------|
 D|----5-------3-----2-------2-|  
 A|-0--0-3-3-3----0--0-2-2-2---| X2
 E|----------------------------|

 G|---------------------------|
 D|----5-------3-----2----0-2-|  
 A|-0--0-3-3-3----0-----3-----|
 E|---------------------------|

 G|------------------------------|
 D|----5-------3-----2-0-0-0-----|  
 A|-0--0-3-3-3----0----------3-3-|
 E|------------------------------|

 BRIDGE PART 
 G|-------------------|
 D|-------------------|  
 A|-------------------| X2
 E|-5-5-5-3-3-3-3-0-0-|

 G|-------------------|
 D|-------------------|  
 A|-------------------| 
 E|-5-5-3-3-3-3/12-12-|

 G|---------------------|
 D|---7-----------------|  
 A|---------------7-5-3-| 
 E|-5---5-3-3-3-0-------|

 2ND VERSE(listen for when to come in)
 G|-------------------|
 D|-------------------|  
 A|-/1212121212121212-|
 E|-------------------|

 G|----------------------------|
 D|----5-------3-----2-------2-|  
 A|-0--0-3-3-3----0--0-2-2-2---| X2
 E|----------------------------|

 G|---------------------------|
 D|----5-------3-----2----0-2-|  
 A|-0--0-3-3-3----0-----3-----|
 E|---------------------------|

 G|-------------------------------|
 D|----5-------3-----2-0-0-0------|  
 A|-0--0-3-3-3----0----------3-3-0|
 E|-------------------------------|

 CHORUS
 G|--------------------------------------------------------------------------|
 D|-33333333333333-2----------------33333333333333-2-------------------------|  
 A|---------------3-5555555555555555--------------3-555555555/17171717171717-| 
 E|--------------------------------------------------------------------------|

 G|------------------------------------------------------------------|
 D|-3-3-3-3-3-3-3-3-0-0-0-0-0-0-0-0-3-3-3-3-3-3-3-3-0000000000000000-|  
 A|------------------------------------------------------------------|
 E|------------------------------------------------------------------|

 2ND BRIDGE PART 
 G|-------------------|
 D|-------------------|  
 A|-------------------| X2
 E|-5-5-5-3-3-3-3-0-0-|

 G|-------------------|
 D|---7---------------|  
 A|-------------------| 
 E|-5---3-3-3-3/12-12-|

 G|------------------------|
 D|------------------------|  
 A|-----------------7-5-3~~| 
 E|-5-5-5-3-3-3-3-0--------|

 3RD VERSE(listen for when to come in)
 G|--------|
 D|--------|  
 A|-121212-|
 E|--------|

 G|----------------------------|
 D|----5-------3-----2-------2-|  
 A|-0--0-3-3-3----0--0-2-2-2---| X2
 E|----------------------------|

 G|---------------------------|
 D|----5-------3-----2----0-2-|  
 A|-0--0-3-3-3----0-----3-----|
 E|---------------------------|

 G|-------------------------------|
 D|----5-------3-----2-0-0-0------|  
 A|-0--0-3-3-3----0----------3-3-0|
 E|-------------------------------|

 2ND CHORUS
 G|--------------------------------------------------------------------------|
 D|-33333333333333-2----------------33333333333333-2-------------------------|  
 A|---------------3-5555555555555555--------------3-555555555/17171717171717-| 
 E|--------------------------------------------------------------------------|

 G|--------------------------------------------------------------------------|
 D|-3-3-3-3-3-3-3-3-0-0-0-0-0-0-0-0-33333333333333-2-------------------------|  
 A|-----------------------------------------------3-555555555/17171717171717-|
 E|--------------------------------------------------------------------------|

 OUTRO
 G|------------------------------------------------|
 D|--------------------------13-13-1313131313131313|  
 A|-000000000000000000000000-----------------------| 
 E|------------------------------------------------|

 G|-----------------------|       G|------------------------|
 D|-----------------------|       D|-13-13-1313131313131313-|
 A|-0-0-12-12\10-10/15-15-| X3    A|------------------------|
 E|-----------------------|       E|------------------------|

 G|--------------------------------|
 D|--------------------------------|  
 A|-0-0-12-12\10-10/15-15-11----0~~|
 E|--------------------------------|

and thats it! tabbed by eddienolan89,rate please!
comments
We did not receive enough feedback on this tab! Please rate:
print report bad tab
1 2 3 4 5
I want to post or [tab]
guest
You may want to rate the tab now too:
select rating
Please do not post tabs as comments. Select "correction" instead!