Oops, an error
Loading. Please wait.

View From The Afternoon Bass Tab

version 6
version 6
520 views 1 this week
1 commentread comment
1 2 3 4 5
please rate
add to favorites
launch autoscroll
font size
0
reset
guitar tuner
Autoscroll
slow
fast
+/-
esc
set tempo
stop
Help us to improve Ultimate-Guitar.com Take our survey!
×
Artist: Arctic Monkeys

Album: Whatever People Say I Am That's What I Am Not



All tabs by Pedro Zappa
-----------------------------------------------------------------------------
-----------------------------------------------------------------------------


1. The View From The Afternoon


Intro

G||--------------------|--------------------|
D||--------------------|--------------------|
A||-0-0--0-0--0-0--0-0-|-0-0--0-0--0-0--0-0-|
E||--------------------|--------------------|
    i    i    i    i     i    i    i    i
G||--------------------|----------------------------||  x2
D||--------------------|-13---13---13.13.13.13-13---||
A||-0-0--0-0--0-0--0-0-|----------------------------||
E||--------------------|----------------------------||
    i    i    i    i     i    i    i           i
G||--------------------|--------------------|
D||--------------------|--------------------|
A||-0-0--0-0--10---15--|-0-0--0-0--10---15--|
E||--------------------|--------------------|
    i    i    i    i     i    i    i    i
G||--------------------|----------------------------|--------------------|
D||--------------------|-13---13---13.13.13.13-13---|--------------------|
A||-0-0--0-0--10---15--|----------------------------|-0-0--0-0--10---15--|
E||--------------------|----------------------------|--------------------|
    i    i    i    i     i    i    i           i      i    i    i    i 

Verse 1

(wait)

G||--------------------|
D||--------------------|
A||x0-0--7-7--5-5--3---|
E||--------------------|
    i    i    i    i
G||--------------------|--------------------||  x2
D||------5---------3---|------2---------2---||
A||-0--------x3-3------|-0-------2---2------||
E||--------------------|--------------------||
    i    i    i    i     i    i    i    i
G||--------------------|--------------------|
D||------5---------3---|------2-------0--2--|
A||-0--------x3-3------|-0---------3--------|
E||--------------------|--------------------|
    i    i    i    i     i    i    i    i
G||--------------------|--------------------|
D||------5---------3---|------2-0----0------|
A||-0--------x3-3------|-0--------------3---|
E||--------------------|--------------------|
    i    i    i    i     i    i    i    i


G||--------------------|--------------------||  x2
D||--------------------|--------------------||
A||-0----0---0---------|--------------------||
E||-----------3-3--3-3-|-0----0-------------||
    i    i    i    i     i    i    i    i
G||--------------------|--------------------|
D||--------------------|--------------------|
A||-0----0---0---------|--------------------|
E||-----------3-3--3-3-|-12---12------------|
    i    i    i    i     i    i    i    i
G||--------------------|--------------------|
D||--------------------|--------------------|
A||-0----0---0---------|------7----5----3---|
E||-----------3-3--3-3-|-0------------------|
    i    i    i    i     i    i    i    i


Verse 2

(wait)

G||----------------------------|
D||----------------------------|
A||/12-12--12-12--12-12--12-12-|
E||----------------------------|
    i      i      i      i
G||--------------------|--------------------||  x2
D||------5---------3---|------2---------2---||
A||-0--------x3-3------|-0-------2---2------||
E||--------------------|--------------------||
    i    i    i    i     i    i    i    i
G||--------------------|--------------------|
D||------5---------3---|------2-------0--2--|
A||-0--------x3-3------|-0---------3--------|
E||--------------------|--------------------|
    i    i    i    i     i    i    i    i
G||--------------------|--------------------|
D||------5---------3---|------2-0----0------|
A||-0--------x3-3------|-0--------------3---|
E||--------------------|--------------------|
    i    i    i    i     i    i    i    i
G||--------------------|
D||--------------------|
A||-0------------------|
E||--------------------|
    i    i    i    i

Chorus

G||--------------------|--------------------|
D||--------------------|--------------------|
A||-8-8--8-8--8-8--8-8-|-8-8--8-8--8-8----7-|
E||--------------------|----------------8---|
    i    i    i    i     i    i    i    i
G||--------------------|--------------------|
D||--------------------|--------------------|
A||-5-5--5-5--5-5--5-5-|-5-5--5-5--5-5--5-5-|
E||--------------------|--------------------|
    i    i    i    i     i    i    i    i
G||--------------------|--------------------|
D||--------------------|--------------------|
A||-8-8--8-8--8-8--8-8-|-8-8--8-8--8-8----7-|
E||--------------------|----------------8---|
    i    i    i    i     i    i    i    i
G||--------------------|----------------------------|
D||--------------------|/12-12--12-12--12-12--12-12-|
A||-5-5--5-5--5-5--5-5-|----------------------------|
E||--------------------|----------------------------|
    i    i    i    i     i    i    i    i

G||--------------------|--------------------|
D||--------------------|--------------------|
A||---8----8----8----8-|---8----8----8----8-|
E||--------------------|--------------------|
    i    i    i    i     i    i    i    i
G||--------------------|--------------------|
D||--------------------|--------------------|
A||---5----5----5----5-|---5----5----5----5-|
E||--------------------|--------------------|
    i    i    i    i     i    i    i    i
G||--------------------|--------------------|
D||--------------------|--------------------|
A||---8----8----8----8-|---8----8----8----8-|
E||--------------------|--------------------|
    i    i    i    i     i    i    i    i
G||--------------------|--------------------|
D||--------------------|--------------------|
A||-5-5--5-5--5-5--5-5-|-5-5--5-5--5-5--5-5-|
E||--------------------|--------------------|
    i    i    i    i     i    i    i    i


G||--------------------|--------------------||  x2
D||--------------------|--------------------||
A||-0----0---0---------|--------------------||
E||-----------3-3--3-3-|-0----0-------------||
    i    i    i    i     i    i    i    i
G||--------------------|--------------------|
D||--------------------|--------------------|
A||-0----0---0---------|--------------------|
E||-----------3-3--3-3-|-12---12------------|
    i    i    i    i     i    i    i    i
G||--------------------|--------------------|
D||--------------------|--------------------|
A||-0----0---0---------|------7----5----3---|
E||-----------3-3--3-3-|-0------------------|
    i    i    i    i     i    i    i    i

(wait)

Verse 2

G||----------------------------|
D||----------------------------|
A||------------------12--12-12-|
E||----------------------------|
    i      i      i      i
G||--------------------|--------------------||  x2
D||------5---------3---|------2---------2---||
A||-0--------x3-3------|-0-------2---2------||
E||--------------------|--------------------||
    i    i    i    i     i    i    i    i
G||--------------------|--------------------|
D||------5---------3---|------2-------0--2--|
A||-0--------x3-3------|-0---------3--------|
E||--------------------|--------------------|
    i    i    i    i     i    i    i    i
G||--------------------|--------------------|
D||------5---------3---|------2-0----0------|
A||-0--------x3-3------|-0--------------3---|
E||--------------------|--------------------|
    i    i    i    i     i    i    i    i
G||--------------------|
D||--------------------|
A||-0------------------|
E||--------------------|
    i    i    i    i

Chorus 2

G||--------------------|--------------------|
D||--------------------|--------------------|
A||-8-8--8-8--8-8--8-8-|-8-8--8-8--8-8----7-|
E||--------------------|----------------8---|
    i    i    i    i     i    i    i    i
G||--------------------|--------------------|
D||--------------------|--------------------|
A||-5-5--5-5--5-5--5-5-|-5-5--5-5--5-5--5-5-|
E||--------------------|--------------------|
    i    i    i    i     i    i    i    i
G||--------------------|--------------------|
D||--------------------|--------------------|
A||-8-8--8-8--8-8--8-8-|-8-8--8-8--8-8----7-|
E||--------------------|----------------8---|
    i    i    i    i     i    i    i    i
G||--------------------|----------------------------|
D||--------------------|-0--12--12-12--12-12--12-12-|
A||-5-5--5-5--5-5--5-5-|----------------------------|
E||--------------------|----------------------------|
    i    i    i    i     i    i    i    i

G||--------------------|--------------------|
D||--------------------|--------------------|
A||---8----8----8----8-|---8----8----8----8-|
E||--------------------|--------------------|
    i    i    i    i     i    i    i    i
G||--------------------|--------------------|
D||--------------------|--------------------|
A||---5----5----5----5-|---5----5-----------|
E||--------------------|--------------------|
    i    i    i    i     i    i    i    i
G||--------------------|--------------------|
D||--------------------|--------------------|
A||-8-8--8-8--8-8--8-8-|-8-8--8-8--8-8--8-8-|
E||--------------------|--------------------|
    i    i    i    i     i    i    i    i
G||--------------------|----------------------------|
D||--------------------|-12-12--12-12--12-12--12-12-|
A||-5-5--5-5--5-5--5-5-|----------------------------|
E||--------------------|----------------------------|
    i    i    i    i     i      i      i      i

Outro

G||--------------------|--------------------|
D||--------------------|--------------------|
A||-0-0--0-0--0-0--0-0-|-0-0--0-0--0-0--0-0-|
E||--------------------|--------------------|
    i    i    i    i     i    i    i    i
G||--------------------|----------------------------|
D||--------------------|-13---13---13.13.13.13-13---|
A||-0-0--0-0--0-0--0-0-|----------------------------|
E||--------------------|----------------------------|
    i    i    i    i     i    i    i           i
G||--------------------|--------------------|
D||--------------------|--------------------|
A||-0-0--0-0--10---15--|-0-0--0-0--10---15--|
E||--------------------|--------------------|
    i    i    i    i     i    i    i    i
G||--------------------|----------------------------|
D||--------------------|-13---13---13.13.13.13-13---|
A||-0-0--0-0--10---15--|----------------------------|
E||--------------------|----------------------------|
    i    i    i    i     i    i    i           i
G||--------------------|--------------------|--------------------|
D||--------------------|--------------------|--------------------|
A||-0-0--0-0--10---15--|-11-----------------|--------------------|
E||--------------------|--------------------|-5------------------|
    i    i    i    i     i    i    i    i     i    i    i    i


Tab by Pedro Zappa
-----------------------------------------------------------------------------
-----------------------------------------------------------------------------
Suggest correction
Give kudos to tab author, rate the tab!
1 2 3 4 5
comments
print report bad tab
1 comment total.
0 reply
ChorizoTapatio 10 wrote on July 12 2015, 06:20 pm

Correct from start to finish. Although the 13th on the D string is a to high for my taste, I prefer the 6 fret on the A string; both work great though

guest
You may want to rate the tab now too:
select rating
Wanna post a correction for this tab? Suggest correction