Oops, an error
Loading. Please wait.

Wavin Bye To The Train Or The Bus Bass Tab

version 1
version 1

Whole song

Interactive

3,503 views 1 this week
2 commentsread comments
1 2 3 4 5
excellent!
x 3
add to favorites
launch autoscroll
font size
0
reset
guitar tuner
Autoscroll
slow
fast
+/-
esc
set tempo
stop
Help us to improve Ultimate-Guitar.com Take our survey!
×
Difficulty
intermediate
-------------------------------------------------------------------------------
“Wavin’ Bye To The Train Or The Bus”
Arctic Monkeys
-------------------------------------------------------------------------------

Tabbed By: julz

Tuning: EADG

Intro

G|------------------------------3--7--5--3--5--3--------------------------|
D|--------------------3--4--5---------------------5--3--------------------|
A|----1---3--1--3--5------------------------------------5--4--3--1--------| x2
E|--3---1-----------------------------------------------------------------|

Verse

G|--------------------------------------------------------------------|
D|------------------------------------0-------------------------------|
A|-----1--3---------------------1--3—(5)------------------------------| x8
E|--3--------1--3--1--3---1--3----------------------------------------|

Chorus

G|-------------------------------------------------------|
D|--------0----------------------------------------------|
A|-----------2--0--0--2--2-------------------------------| x2
E|--3-3-3------------------------------------------------|

(Verse) 

(Chorus)

Ending (“Don’t know where we’re going baby...”)

G|--------------------|
D|--------------------|
A|--------------------|
E|--3/---7\--5\--3----|

(“Be together again...”)

G|----------------------|
D|----------------------|
A|----------------------|
E|--3-3---7\-5\---3-3---|

| /  slide up
| \  slide down
Suggest correction
Give kudos to tab author, rate the tab!
1 2 3 4 5
comments
print report bad tab
2 comments total.
0 reply
IndieJoe 1,997 wrote on March 15 2009, 10:36 am

The chorus has more notes

0 reply
IndieJoe 1,997 wrote on March 18 2009, 01:36 pm

my bad this is actually perfect :D

guest
You may want to rate the tab now too:
select rating
Please do not post tabs as comments. Select "correction" instead!