Oops, an error
Loading. Please wait.

Wavin Bye To The Train Or The Bus Tab

version 1
version 1

Whole song

Interactive

15,417 views 21 this week
4 commentsread comments
1 2 3 4 5
excellent!
x 11
add to favorites
launch autoscroll
font size
0
reset
how to read this tab
guitar tuner
Autoscroll
slow
fast
+/-
esc
set tempo
stop
Help us to improve Ultimate-Guitar.com Take our survey!
×
Author
Difficulty
novice
Wavin' bye to the train or the bus - arctic monkeys

Intro Pt1
E|-------------|---------------|-------------|------------|
B|-------------|---------------|-------------|------------|
G|-------------|-------------3-|-5/7-5-3-5-3-|------------|
D|-------------|---0--3-4-5----|-------------|-5-4-3------|
A|----1----3-1-|-3-------------|-------------|-------5-4-3|
E|-3----1------|---------------|-------------|------------| x2

Verse
   Gm             F    Cm
E|---------------|-----------|
B|---------------|-----------|
G|---------------|-----------|
D|---------------|-----------|
A|---1-3---------|-----1-3-5-|
E|-3-----1-3-1-3-|-1-3-------|

Chorus;
G - Am Bm

middle 8:
   G          Bm    Am                   G        Bm      Am
E|-----3-------2--------5---5h7p5------|-----3--------2-------5-------5h7p5-|
B|-------3-------3--------5-------5h7p5|-------3--------3-------5--5h7-----7|
G|---4-------4--------5----------------|---4--------4-------5---------------|
D|-5-------4--------7------------------|-5--------4-------7-----------------|
A|-------------------------------------|------------------------------------|
E|-------------------------------------|------------------------------------|
    G         Bm    Am                  G        Bm     Am
E|-----3-------2--------5---5h7p5------|-----3--------2---------|
B|-------3-------3--------5-------5h7p5|-------3---------3--1---|
G|---4-------4--------5----------------|---4--------4----4--2---|
D|-5-------4--------7------------------|-5--------4------4--2---|
A|-------------------------------------|------------------------|
E|-------------------------------------|------------------------|

Them (fast): Bm Am

outro: (everything)
G - Bm Am

Lyrics w/chords:
     Gm           F            Cm        Gm   F Cm
Oh Baby, Im wanting to do ya a swap
                 Gm          F             Cm            Gm   F Cm
Well i give you anything in return for the noises you got
          Gm                F           Cm
And I can see you want to be attendented to
              Gm          F          Cm
Just count to 29 and I'll attend to you
         Gm      F           Cm      Gm                 F Cm
Oh for sure.         Well certainly. Yeah, yeah, yeah

G          Am          Bm          G
     Wavin' bye to the train or the bus
    Am      Bm      G       
I'm ever so worried because
   Am          Bm         G
I don't want to get all forgotten
Am    Bm
     (scream)

         Gm               F              Cm                  Gm   F Cm
So very comfortable don't really need to put up ma feet
          Gm                            F           Cm            Gm   F Cm
And even in fat sam's grand slam can't see it being easier to speak
         Gm                        F        Cm
When you karate kicked your way to someone new
         Gm                      F      Cm
And I'm a memory that don't know what to do
           Gm   F   Cm              Gm               F Cm
All on his own.     Collecting his (dole?) and stuff.

G            Am          Bm            G
       Wavin' bye to the train or the bus
    Am       Bm     G
I'm ever so worried because
   Am           Bm          G        Am Bm
I don't want to get all forgotten
     G       Am Bm
Cos we know. 
       G            Am Bm
Yer we knoo-o-o-ow.
           G       Am   Bm       G   Am Bm             
Oh we knooooow          whoa-o-o.

G Bm Am

G            Bm   Am          G       Bm Am G
       Don't know where we're going baby
      Bm Am    G      Bm Am G
I s'pose it depends
     Bm  Am      G         Bm Am
But even if we're all far apart
        G                 Bm    Am
We can all come back and all be fine
    G (N.C.)
And we'll be able to

Bm   Am     G
Be together again x7
Bm Am G                     Bm   Am     G
               Everybody'll be together again
Suggest correction
What's this?
You can suggest a correction to this tab. Community and Mods will review your correction and vote to approve or reject it.
comments
print report bad tab
4 comments total. Showing first comments.
0 reply
mangoboy 12 wrote on June 10 2006, 08:42 am

great work. thaNKS

0 reply
HiroFox89 15 wrote on July 25 2007, 12:40 pm

love this songA!! thank YA!!!

0 reply
willmanu 18 wrote on December 1 2007, 11:10 pm

your chords seem out of whack a little
am doesnt sound right
either im deaf or you've mistaken your theory
thanks
for the intro and all tho
cheers*

guest
You may want to rate the tab now too:
select rating
Please do not post tabs as comments. Select "correction" instead!