Oops, an error
Loading. Please wait.

What If You Were Right The First Time Bass Tab

version 1
version 1

Whole song

Interactive

1,050 views 1 this week
no commentswrite comment
1 2 3 4 5
please rate
add to favorites
launch autoscroll
font size
0
reset
guitar tuner
Autoscroll
slow
fast
+/-
esc
set tempo
stop
Help us to improve Ultimate-Guitar.com Take our survey!
×
Author
This ain't right. I admit that, go to the 2nd version which is spot on.
Intro:
G|------------------------------------|
D|------------------------------------|
A|77777777/---------77777777/9999999--|x2
E|---------99999999-------------------|


Main Riff:
G|----5------5------3------3--|
D|---5------5------3------3---|
A|7------7------5------5------| x7
E|----------------------------|

G|----5------5----------|
D|---5------5-----------|
A|7------7------5-5-55--|
E|----------------------|

Pre-chorus:
G|------------------------------------|
D|------------------------------------|
A|77777777/---------77777777/9999999--|x2
E|---------99999999-------------------|

Chorus:
G|------------------------------------------|
D|------------------------------------------|
A|77777777755555555333333333333333/4/5/6/7--x2
E|------------------------------------------|

G|------------------------------------------------------------|
D|------------------------------------------------------------|
A|7-----5-----3-----------------7-----5-----3333333333333333--|
E|------------------------------------------------------------|

Bridge:
G|------|
D|------|
A|7~~~--x4
E|------|

G|----|
D|-7--|
A|3---| x10
E|----|

G|-------------------|
D|-------------------|
A|77---77---7-7-777--| x2
E|-------------------|

G|-------------------------------|
D|-------------------------------|
A|---99----99-----1111-----1111--|x16
E|7-8---7-8---9-10-----9-10------|

Main Riff:
G|----5------5------3------3--|
D|---5------5------3------3---|
A|7------7------5------5------x3
E|----------------------------|

G|----5-----5-------------|
D|---5-----5--------------|
A|7-----7------555555555--|
E|------------------------|

Outro:
G|----------|
D|----------|
A|55/--55/--|
E|----------|

G|------------------------------------|
D|------------------------------------|
A|77777777/---------77777777/9999999--|x2
E|---------99999999-------------------|
Suggest correction
Give kudos to tab author, rate the tab!
1 2 3 4 5
comments
print report bad tab
guest
You may want to rate the tab now too:
select rating
Wanna post a correction for this tab? Suggest correction