Oops, an error
Loading. Please wait.

What If You Were Right The First Time Tab

version 1
version 1

Whole song

Interactive

5,281 views 6 this week
no commentswrite comment
1 2 3 4 5
accurate
x 6
add to favorites
launch autoscroll
font size
0
reset
how to read this tab
guitar tuner
Autoscroll
slow
fast
+/-
esc
set tempo
stop
Help us to improve Ultimate-Guitar.com Take our survey!
×
Author
Tabbers playing skills
intermediate +
Arctic Monkeys - What If You Were Right The First Time?

Not 100%, but last time i checked there weren't any tabs of 
this, so it's a start. 

Listen to the song for timing and how many times to play 
each chord or riff.


NOTE:i'm not sure about the chord after the slide in the intro and the third chord in the chorus


Intro
E|----------------------------------------------------------------------|
B|----------------------------------------------------------------------|
G|----------------------------------------------------------------------|
D|--9/77777777-131313-999-----------------------------------------------|
A|--9/77777777-131313-999-----------------------------------------------|
E|--7/55555555-111111-777-----------------------------------------------|

Verse
E|----------------------------------------------------------------------|
B|----------------------------------------------------------------------|
G|-8--------------------------------------------------------------------|
D|-8-8------------------------------------------------------------------|
A|-6-8------------------------------------------------------------------|
E|---6------------------------------------------------------------------|


Chorus
E|----------------------------------------------------------------------|
B|----------------------------------------------------------------------|
G|----------------------------------------------------------------------|
D|--8-6-4---------------------------------------------------------------|
A|--8-6-4---------------------------------------------------------------|
E|--6-4-2---------------------------------------------------------------|

Solo
E|----------------------------------------------------------------------|
B|----------------------------------------------------------------------|
G|----------------------------------------------------------------------|
D|-6666-99-131313-12-1212-----------------------------------------------|
A|-6666-99-131313-12-1212-----------------------------------------------|
E|-4444-77-111111-10-1010-----------------------------------------------|

Guitar2
E|----------------------------------------------------------------------|
B|----------------------------------------------------------------------|
G|----------------------------------------------------------------------|
D|---6~-/9-/13/12~------------------------------------------------------|
A|----------------------------------------------------------------------|
E|----------------------------------------------------------------------|

That's it.
Comments/Suggestions welcome!
rate it!

soupdragon
Suggest correction
comments
print report bad tab
guest
You may want to rate the tab now too:
select rating
Please do not post tabs as comments. Select "correction" instead!