Oops, an error
Loading. Please wait.

What If You Were Right The First Time Bass Tab

version 2
version 2

Whole song

Interactive

2,731 views 6 this week
no commentswrite comment
1 2 3 4 5
excellent!
x 4
add to favorites
launch autoscroll
font size
0
reset
guitar tuner
Autoscroll
slow
fast
+/-
esc
set tempo
stop
Help us to improve Ultimate-Guitar.com Take our survey!
×
Contributor
Anzelmo 323
-----------------------------------------------------------------------------
             Arctic Monkeys - What if you were right first time?
-----------------------------------------------------------------------------

Tabbed by Anzelmo

I think that's correct

Intro:
G|---------------------------------------------------------------------------|
D|---------------------------------------------------------------------------|
A|-6-6-6-6-6-6-6-6-----------------6-6-6-6-6-6-6-6-12-12-12-12-12-12-12-12---| x2
E|-----------------5-5-5-5-5-5-5-5-------------------------------------------|

Verse 1:
G|------6-------6----------------|
D|----8-------8--------6------6--|x7
A|-6-------6---------8------8----|
E|----------------6------6-------|

G|------6-------6----------------|
D|----8-------8------------------|
A|-6-------6---------------------|
E|-------------------6----6------|

Intro

Chorus:
G|-----------------------------------------------------------------------|
D|-----------------------------------------------------------------------|
A|-13-13-13-13-13-13-13-13-11-11-11-11-11-11-11-11-6-6-6-6-6-6-6-6-9-11--|
E|-----------------------------------------------------------------------|

G|-----------------------------------------------------------------------|
D|-----------------------------------------------------------------------|
A|-13-13-13-13-13-13-13-13-11-11-11-11-11-11-11-11-6-6-6-6-6-6-6-6-6-6-6-|
E|-----------------------------------------------------------------------|

G|---------------------------------------------------------------------------|
D|---------------------------------------------------------------------------|
A|-13----------11----------6--------------13----------11---------------------|
E|--------------------------------------------------------5-5-5-5-5-5-5-5-5--|

Bridge:
G|---------------------------------------------------------------------------|
D|-----------6---------6-------6--------6---6---6-6--6---6----6--------------|
A|---------------------------------------------------------------------------|
E|--4----------4---------4-------4--------4---4--------4---4----4------------|

Solo:
G|----------------------6------6--|
D|-------4------4-----8------8----|
A|-----6------6----6------6-------|
E|--4------4----------------------|              \
                                                  x4
G|----------------------6---------|              /
D|-------4------4-----8------8-6--|
A|-----6------6----6------6-------|
E|--4------4----------------------|

Verse 2:
G|----------------------------------------|
D|----------------------------------------|
A|----------------------------------------|  x8
E|-4-4-4-4-7-7-7-7-11-11-11-10-10-10-7-7--|


Chorus 2:
G|----------------------6------6--|
D|-------4------4-----8------8----|
A|-----6------6----6------6-------|
E|--4------4----------------------|
                                   
G|--------------------------------|
D|-------4------4-----8-6----8-6--|
A|-----6------6----6------6-------|
E|--4------4----------------------|

G|----------------------6------6--|
D|-------4------4-----8------8----|
A|-----6------6----6------6-------|
E|--4------4----------------------|

G|--------------------------------|
D|--------------------------------|
A|--------------------------------|
E|-5-5-5-5-5-5-5-5----5-5-----5-5-|

Outro the same as intro

end on:
G|---|
D|---|
A|-6-|
E|---|
comments
print report bad tab
I want to post or [tab]
guest
You may want to rate the tab now too:
select rating
Please do not post tabs as comments. Select "correction" instead!