Oops, an error
Loading. Please wait.

Whatever People Say I Am Thats What Im Not Tab

64,612 views 48 this week
17 commentsread comments
1 2 3 4 5
accurate
x 26
add to favorites
launch autoscroll
font size
0
reset
how to read this tab
guitar tuner
Autoscroll
slow
fast
+/-
esc
set tempo
stop
Help us to improve Ultimate-Guitar.com Take our survey!
×
Author
As you can probably guess this took me ages but I noticed that it is a little anoying 
out every song indervidualy so please rate this tab keep it up all you guitar nuts LUKE 
better known as pinky
(sorry for any mistakes)


song list

You probably couldn't see
Still Take You Home
dancing shoes
Fake Tales Of San Francisco
I Bet You Look Good On The Dancefloor
A Certain Romance
Riot Van
when the sun goes down (Scummy)
the view from the afternoon
Red Light Indicates Doors Are Secure
Mardy Bum
From The Ritz To The Rubble
Perhaps vampires is a bit strong but....


You Probably Couldnt See For The Lights But You Were Looking Straight At Me


e---------------------------------------------------|
B---------------------------------------------------|
G-------------------------12-------------12---------| x3
D-9-9-9-9-9-9-9---12-12-x-12-11--12-12-x-12-11------|
A-9-9-9-9-9-9-9---12-12-x-10-9--12-12-x-10--9-------|
E-7-7-7-7-7-7-7---10-10-x----9--10-10-x-----9-------|
e---------------------------------------------------|
B---------------------------------------------------|
G-------------------11-11-11-11-11-11-11-11---------|
D--x-9-9--x-x-9-9---11-11-11-11-11-11-11-11---------|
A--x-9-9--x-x-9-9---9--9--9--9--9--9--9--9----------|
E--x-7-7--x-x-7-7-----------------------------------|


Verse

e----------|
B----------|
G----------|
D--9-7-----|
A------9---| repeats for a bit
E--------7-|

e--------------------------------|
B--------------------------------|
G--------------------------------|
D--9-7-------------------5-------|
A------9-7---5--7-7--5-7---5-4---|
E--------------------------------|

Chorus

e------------------|
B------------------|
G---------9--11----|
D--9--12--9--11-12-|
A--9--12--7--9--12-|
E--7--10--------10-|

This comes after a bit
e----------------------|
B----------------------|
G----------------------|
D--9-9--7-7------------|
A-----------9-9--7-5---|
E----------------------|

Post chorus (a bit different then the intro)

e-----------------=-------------------------------------|
B-------------------------------------------------------|
G-------------------------------------------------------|
D-9-9-9-9-9/12\--9-9---7-7-7—-7/9-9-9---7-7-7--7/9-9-9-7|
A-9-9-9-9-9/12\--9-9------------------------------------| x2
E-7-7-7-7-7/10\--7-7------------------------------------|


Then the verse comes in again


Chorus


e-------------------------------------------|
B-----7----------7--------------------------|
G-9-9---9-7--9-9---9-7-------------9-11-----|
D-----------------------9-7-9-7-12-9-11-11--|
A-------------------------------12-7-9--11--| x3
E-------------------------------10------9---|
-
e-------------------------------------------------------------|
B-----7----------7--------------------------------------------|
G-9-9---9-7--9-9---9-7---11-11-11-11-11-11-11--11-9-7---------|
D-----------------------------------------------------9-------|
A-------------------------------------------------------------|
E-------------------------------------------------------------|


e------------------|
B------------------|
G---------9--11----|
D--9--12--9--11-12-|
A--9--12--7--9--12-|
E--7--10--------10-|


Verse

e-------------|
B-------------|
G--12-11---9--|
D--12-11-9-9--|
A--10-9--9-7--|
E--------7----| x3

e---------------------|
B---------------------|
G---------------------|
D--5--12---9-9-9-9-9-9|
A--5--12---9-9-9-9-9-9|
E--3--10---7-7-7-7-7-7|


still take you home


e------------|
B------------|
G------------|
D--8-8-12-11-|
A--8-8-12-11-|
E--6-6-10-9--|

e-----------------------------------------------|
B-----------------------------------------------|
G-----------------------------------------------|
D--8-8-8-6---------6--------------------6-------|
A----------8-8-6-8----6-8-8--6-8-8--6-8---6-8-6-|
E-----------------------------------------------|

e----------------------------------------|
B----------------------------------------|
G----------------------------------------|
D--------------------6-8-6-8--6-8-8-8/6--|
A----6-8---6-8----6----------------------|
E--9-----9------9------------------------|

Verse
e----------------------------------|
B----------------------------------|
G-------------------8-8-8-8--11-10-|
D--8-8-8-8-8-8-8----8-8-8-8--11-10-|
A--8-8-8-8-8-8-8----6-6-6-6---9--8-|
E--6-6-6-6-6-6-6-------------------|


Verse:
Riff 2 x4

Chorus:
1 guitar
e--------------------------------|
B--------------------------------|
G-8-----6----3-3-3-3-3-3-3-3-3-3-|
D-8-----6----3-3-3-3-3-3-3-3-3-3-|
A-6-----4----1-1-1-1-1-1-1-1-1-1-|
E--------------------------------|


Another guitar
e-----------------------------------------|
B-----------------------------------------|
G-----------------------------------------|
D--13-11-13---11-8-8-11---8-8-8-8-8-8-8-8-|
A-------------------------8-8-8-8-8-8-8-8-|
E-------------------------6-6-6-6-6-6-6-6-|


Bridge
e-------------------------------|
B-------------------------------|
G-----3-3-1---------------------|
D-----------3-2--1-1-4-4--444-3-|
A-1-1---------------------------|
E-------------------------------|

e-------------------------------------------|
B-------------------------------------------|
G----------6----------8-8-8-6---8-8-8-6-----|
D--8-8-6-8---8--6-8-8---------8---------8-8-|
A-------------------------------------------|
E-------------------------------------------|

e--------------------------------------------------|
B--------------------------------------------------|
G------------------------6--8/10-10\6--------------|
D-----6-8------------6-8---------------8-8-8-6-8---|
A-6-8-------6-8--6-8-----------------------------6-|
E---------9----------------------------------------|


Dancing shoes

Intro
e---------------------------------------------------|
B---------------------------------------------------|
G---------------------------------------------------|
D-----4--1--------4--1------------------2-2-2--4-2--|  x4
A----------2-----------2---4-4-4--6-4---------------|
E-4-4---------4-4-----------------------------------|


Chorus
e------------------------------------------------------|
B------------------------------------------------------|
G-------6--4------------------------6--4---------------|
D-6--4--4--4--6---------------6--4--4--4--6------------|
A-6--4--4--2--4---------------6--4--4--2--4------------|
E-4--2--------4-4-4--2-4------4--2--------4-4-4--4-4---|


e------------------------------------------------------|
B------------------------------------------------------|
G-------6--4------------------------6--4---------------|
D-6--4--4--4--6---------------6--4--4--4--6------------|
A-6--4--4--2--4---------------6--4--4--2--4------------|
E-4--2--------4-4-4--2-4------4--2--------4------------|

Verse 'The lights are flashing'
e---------------------------------------------------------|
B---------------------------------------------------------|
G---------------------------------------------------------|
D----------------------------------------2-2-2--4-2-------|  x2
A---------------------------4-4-4--6-4--------------------|
E-4-4-4--2-4---4-4-4--2-4---------------------------------|

e---------------------------------------------------------|
B---------------------------------------------------------|
G---------------------------------------------------------|
D----------------------------------------2-2-2--4-2-------|
A------------2--------------4-4-4--6-4--------------------|
E-4-4-4--2-4---4-4-4--2-4---------------------------------|

e---------------------------------------------------------|
B---------------------------------------------------------|
G---------------------------------------------------------|
D----------------------------------------2-2-2--4-2-------|
A---------------------------4-4-4--6-4--------------------|
E-4-4-4--2-4---4-4-4--2-4---------------------------------|


Chorus
e------------------------------------------------------|
B------------------------------------------------------|
G-------6--4------------------------6--4---------------|
D-6--4--4--4--6---------------6--4--4--4--6------------|
A-6--4--4--2--4---------------6--4--4--2--4------------|
E-4--2--------4-4-4--2-4------4--2--------4-4-4--4-4---|


e------------------------------------------------------|
B------------------------------------------------------|
G-------6--4------------------------6--4---------------|
D-6--4--4--4--6---------------6--4--4--4--6------------|
A-6--4--4--2--4---------------6--4--4--2--4------------|
E-4--2--------4-4-4--2-4------4--2--------4------------|

Backing guitar for solo
e-------------------------------------------|
B-------------------------------------------|
G-----------------6666666699999999----------|
D-66666666666666666666666699999999----------| x4
A-66666666666666664444444477777777----------|
E-4444444444444444--------------------------|


Then back to intro                                                         e--|
B-----------------------------------------------------------------------------|
G-----------------------------------------------------------------------------|   x2
D-----4--1--------4--1------------------2-2-2--4-2----------------------------|
A----------2-----------2---4-4-4--6-4-----------------------------------------|
E-4-4---------4-4-------------------------------------------------------------|


'Oh and the shit, shock horror' (short pause between each chord)
e---------------------------------------------------|
B---------------------------------------------------|
G------------------6-6-6-6-9-9-9-9------------------|
D--6-6-6-6-6-6-6-6-6-6-6-6-9-9-9-9------------------|  x2
A--6-6-6-6-6-6-6-6-4-4-4-4-7-7-7-7------------------|
E--4-4-4-4-4-4-4-4----------------------------------|


Outro:
e-----------------------------------------------------------|
B-----------------------------------------------------------|
G-----------------------------------------------------------|
D--6-6-6--4-6-----6-6-6--4-6-----6-6-6--4-6-----6-6-6--4-6--|
A--6-6-6--4-6-----6-6-6--4-6-----6-6-6--4-6-----6-6-6--4-6--|
E--4-4-4--2-4-----4-4-4--2-4-----4-4-4--2-4-----4-4-4--2-4--|


Fake tales of san fransisco


Main Riff (Intro and Verses):

e |---------------------------------------------------------------------|
B |---------------------------------------------------------------------|
G |---------------------------------------------------------------------|
D |----------------------------------------------------------7----------|
A |-----5-----5-7-5-----5-----5-7-5-----5-----5-7-5----5-7-9---9-7-5----|
E |--7-----7---------7-----7---------7-----7---------7---------------7--|

Second Guitar (During Verses:

e |--7-7---5---7-7---5---7-7---5--|
B |--7-7---5---7-7---5---7-7---5--|
G |-------------------------------|
D |-------------------------------|
A |-------------------------------|
E |-------------------------------|


Bridge (x4):

Guitar 1:

e|----------------------------------------------------------------|
B|----------------------------------------------------------------|
G|--------------------------------9999999999999999----------------|
D|9999999999999999555555555555555599999999999999999999999999999999|
A|9999999999999999555555555555555577777777777777779999999999999999|
E|77777777777777773333333333333333----------------7777777777777777|

Guitar 2:

e|------------------------------------------------------------------|
B|------------------------------------------------------------------|
G|------------------------------------------------------------------|
D|9999999999999999555555555555555522222222222222229999999999--------|
A|9999999999999999555555555555555522222222222222229999999999----7-9-|
E|7777777777777777333333333333333300000000000000007777777777-10-----|

Outro:

e |--7-7---5----------------------|
B |--7-7---5------Play 8 Times----|
G |-------------------------------|
D |-------------------------------|(Second guitar joins after first 2)
A |-------------------------------|
E |-------------------------------|

End on:

e |--7--|
B |--7--|
G |-----|
D |-----|
A |-----|
E |-----|


I bet you look good on the dance floor


Intro
E|---------------------||
B|---------------------||
G|---------------------||
D|-4-4--4-4--4-4--4-4--|| x2
A|-4-4--4-4--4-4--4-4--||
E|-2-2--2-2--2-2--2-2--||


Solo:

|-------------------------------------------------------------|
|-------------------------------------------------------------|
|-----------------------------------------9-9-9-9-11-11-11-11-|
|---------------------9-9-9-9-11-11-11-11---------------------|
|-9-9-9-9-12-12-12-12-----------------------------------------|
|-------------------------------------------------------------|

|--------------------------------------------------------|
|--------------------------------------------------------|
|-14-14-14-14-16-16-16-16-16b-16b-16b-16b-16b-16b-16b-16b|
|--------------------------------------------------------|
|--------------------------------------------------------|
|--------------------------------------------------------|

|--------------------------------------------------|
|--------------------------------------------------|
|-16-14----------14--16-14---------—14-16b<18>r16--| PLAY 16TH FRET AND BEND
|-------16-14-16-----------16-14-16----------------| UP TO 18 AND RELEASE.
|--------------------------------------------------|
|--------------------------------------------------|


|--------------------------------------------------------------|
|--------------------------------------------------------------|
|16-16-16-16-14----------14------------------------------------|
|---------------16-14-16----16---16-16-16-16-14----------14----|
|-----------------------------------------------16-14-16----16-|
|--------------------------------------------------------------|

|---------------------------------------------------------|
|---------------------------------------------------------|
|---------------------------------------------------------|
|---------------------------------------------------------|
|-14-12-14-12----------12-14-12----------12-14b151515r14\-|
|-------------14-12-14----------14-12-14------------------|

Verse:
E|---------------------------||
B|---------------------------||
G|---------------------------||
D|-11-11--9-9-9-9--7-7-7--4--||
A|-11-11--9-9-9-9--7-7-7--4--||
E|-9--9---7-7-7-7--5-5-5--2--||

Chorus:
E|------------------------------------------------------------------||
B|------------------------------------------------------------------||
G|------------------------------------------------------------------||
D|-4-4-4-4-4-4-4-4--7-7-7-7-7-7-7-7--9-9-9-9-9-9-9-9-2-4-4-4-4-4-4-4||
A|-4-4-4-4-4-4-4-4--7-7-7-7-7-7-7-7--9-9-9-9-9-9-9-9-4-4-4-4-4-4-4-4||
E|-2-2-2-2-2-2-2-2--5-5-5-5-5-5-5-5--7-7-7-7-7-7-7-7-2-2-2-2-2-2-2-2||

2nd solo after the first Chorus:

E|-------------------------------------------------------||
B|-------------------------------------------------------||
G|-------------------------------------------------------||
D|--11-----9-9-9-9-9-9--7----------------------7-9-7-9---||
A|-----12-----------------9---9-9-9-7-9-9-7-9------------||
E|-------------------------------------------------------||

E|-------------------------------------------------------||
B|-------------------------------------------------------||
G|-----9----9--11-------14----14-16-14-16b---------------||
D|--11---11----------16----16----------------------------||
A|-------------------------------------------------------||
E|-------------------------------------------------------||

A certain romace


intro

e |---------|
B |---------|
G |---7--9--|
D |-9-------|
A |---------|  X 16
E |---------|

e |----------|
B |----------|
G |----------|
D |--9-9-9---|
A |--9-9-9---| X 8 (Scratch strings inbetween)
E |--7-7-7---|
	(Scratch strings inbetween)

Part i

e |----------------------14-14-14---------------16-16-16---------------18-18-18-18-18-15-12--|
B |----16-16---16-16-16-----------16---16-16-16----------16---16-16-16-----------------------|
G |------------------------------------------------------------------------------------------|
D |------------------------------------------------------------------------------------------|
A |------------------------------------------------------------------------------------------|
E |------------------------------------------------------------------------------------------|

e |--7--7-7-7-9-7---9-7---7--7-7-7---------------------------------------------------------|
B |---------------9-----9----------8-8-8-8-------------------------------------------------|
G |----------------------------------------------------------------------------------------|
D |----------------------------------------------------------------------------------------|
A |----------------------------------------------------------------------------------------|
E |----------------------------------------------------------------------------------------|

	Repeat


VERSE (Bass Starts at the same Time Here)

e |---11--------|
B |---12--------|
G |---11--------|
D |-------------|
A |-------------| X 16
E |-------------|

e |---7---------|
B |---9---------|
G |---9---------|
D |-------------|
A |-------------| X 16
E |-------------|

	"You Know..."
e |-------------------------------------------------------------|
B |--9--9-7------9-7-----9-7-----9-7----------------------------|
G |---------8--6-----8-------8-------8-------6-8----9-5-6-------|
D |--------------------9-------9----------9-------6--------4----|
A |-------------------------------------------------------------|
E |-------------------------------------------------------------|

Repeat them Play the above over the following chords

Ab Gb E  X2

Bass Solo
 - Here Bass Plays 4 times, for the 5th time play;

e |---7-----7-7-7-7-7------------7------|
B |---9---------------9-9--------8------|
G |---9-------------------9------9------|
D |-------------------------------------|
A |-------------------------------------|
E |-------------------------------------|
 Then;

Play Part i 1 time with the following chords in the background, then 1 time without
and then the third time with:

e |---11--------|
B |---12--------|
G |---11--------|
D |-------------|
A |-------------| X 16
E |-------------|

e |---7---------|
B |---9---------|
G |---9---------|
D |-------------|
A |-------------| X 16
E |-------------|

After this, a solo Background chords B Ab and G

e |----------------------------------------------------|
B |----------------------------------------------------|
G |----------------------------------8-----8--6--4-----|
D |---9-8-9--9/11-9-8-9---8-9-9/11-9---4-----------6--5|
A |----------------------------------------------------|  X2
E |----------------------------------------------------|


e |---------------------------------------|
B |--9-9-7-7--------9-9-9-7-7-------------|
G |----------8-8-8-------------8-8-8-8----|
D |---------------------------------------|
A |---------------------------------------| X 7
E |---------------------------------------|

On the Eighth one however

e |---------------------------------------|
B |--9-9-7-7-------------7-7--------------|
G |----------8-8-6-6-8-8------8-8-6-6-4---|
D |---------------------------------------|
A |---------------------------------------|
E |---------------------------------------|


riot van


verse one
              F#m C#m       Bm
 Up rolled the riot van and sparked excitement in the boys
|--------------2----4-------2----------------------------------------|
|--------------2----5-------3----------------------------------------|
|--------------2----6-------4----------------------------------------|
|--------------4----6-------4----------------------------------------|
|-------------------4-------2----------------------------------------|
|--------------------------------------------------------------------|

              F#m C#m       Bm
                           But the policemen look annoyed
|--------------2----4-------2----------------------------------------|
|--------------2----5-------3----------------------------------------|
|--------------2----6-------4----------------------------------------|
|--------------4----6-------4----------------------------------------|
|-------------------4-------2----------------------------------------|
|--------------------------------------------------------------------|

              F#m  C#m      Bm
 			   Perhaps these are ones they should avoid
|--------------2----4-------2----------------------------------------|
|--------------2----5-------3----------------------------------------|
|--------------2----6-------4----------------------------------------|
|--------------4----6-------4----------------------------------------|
|-------------------4-------2----------------------------------------|
|--------------------------------------------------------------------|

              F#m  C#m      Bm
|--------------2----4-------2----------------------------------------|
|--------------2----5-------3----------------------------------------|
|--------------2----6-------4----------------------------------------|
|--------------4----6-------4----------------------------------------|
|-------------------4-------2----------------------------------------|
|--------------------------------------------------------------------|

chorus
  A                         C#m                     Bm
 They got a chase last night from men with trunchens dressed in hats
|---------------------------4----------------------------------------|
|---------------------------5--5--5--5---5--5--0----3-3-3-3--3-3-0---|
|----------6----------------6--6--6--6---6--6--0----4-4-4-4--4-4-0---|
|-7--7--7--7--7--7--0-------6--6--6--6---6--6--0----4-4-4-4--4-4-0---|
|-7--7--7--7--7--7--0-------4------------4----------2--------2-------|
|-5--5--5--5--5--5--0------------------------------------------------|
  E                    A                         C#m
                        Didnt do that much wrong still ran away though
|--------0--(0)----------------------------------4-------------------|
|-----0--0---0--0--------------------------------5--5--5--5---5--5--0|
|-1-1-1--1-1-1--0------------6-------------------6--6--6--6---6--6--0|
|-2-2-2----2----0------7--7--7--7-----7--7--0----6--6--6--6---6--6--0|
|-2-2-2----2----0------7--7--7--7-----7--7--0----4------------4------|
|----------------------5--5--5--5-----5--5--0------------------------|
  Bm               E
 laugh .. laugh
|--------------------------0--(0)------------------------------------|
|-3-3-3-3--3-3-0--------0--0---0--0----------------------------------|
|-4-4-4-4--4-4-0----1-1-1--1-1-1--0----------------------------------|
|-4-4-4-4--4-4-0----2-2-2----2----0----------------------------------|
|-2-----------------2-2-2----2----0----------------------------------|
|--------------------------------------------------------------------|


verse two
              F#m C#m       Bm
 & please just stop tal----king 'cause they won't find us if you do
|--------------2----4-------2----------------------------------------|
|--------------2----5-------3----------------------------------------|
|--------------2----6-------4----------------------------------------|
|--------------4----6-------4----------------------------------------|
|-------------------4-------2----------------------------------------|
|--------------------------------------------------------------------|

              F#m C#m       Bm
                           All those silly boys in blue
|--------------2----4-------2----------------------------------------|
|--------------2----5-------3----------------------------------------|
|--------------2----6-------4----------------------------------------|
|--------------4----6-------4----------------------------------------|
|-------------------4-------2----------------------------------------|
|--------------------------------------------------------------------|

              F#m C#m       Bm
 			    Well they won't catch me and you
|--------------2----4-------2----------------------------------------|
|--------------2----5-------3----------------------------------------|
|--------------2----6-------4----------------------------------------|
|--------------4----6-------4----------------------------------------|
|-------------------4-------2----------------------------------------|
|--------------------------------------------------------------------|

              F#m C#m       Bm
|--------------2----4-------2----------------------------------------|
|--------------2----5-------3----------------------------------------|
|--------------2----6-------4----------------------------------------|
|--------------4----6-------4----------------------------------------|
|-------------------4-------2----------------------------------------|
|--------------------------------------------------------------------|


chorus
  A                         C#m                     Bm
Have you been drinking son? you dont look old enough to me
|---------------------------4----------------------------------------|
|---------------------------5--5--5--5---5--5--0----3-3-3-3--3-3-0---|
|----------6----------------6--6--6--6---6--6--0----4-4-4-4--4-4-0---|
|-7--7--7--7--7--7--0-------6--6--6--6---6--6--0----4-4-4-4--4-4-0---|
|-7--7--7--7--7--7--0-------4------------4----------2--------2-------|
|-5--5--5--5--5--5--0------------------------------------------------|
  E                    A                         C#m
                        Im sorry officer is there a certain age your
|--------0--(0)----------------------------------4-------------------|
|-----0--0---0--0--------------------------------5--5--5--5---5--5--0|
|-1-1-1--1-1-1--0------------6-------------------6--6--6--6---6--6--0|
|-2-2-2----2----0------7--7--7--7-----7--7--0----6--6--6--6---6--6--0|
|-2-2-2----2----0------7--7--7--7-----7--7--0----4------------4------|
|----------------------5--5--5--5-----5--5--0------------------------|
  Bm               E
 be? cause no body told me     and up ...
|--------------------------0--(0)------------------------------------|
|-3-3-3-3--3-3-0--------0--0---0--0----------------------------------|
|-4-4-4-4--4-4-0----1-1-1--1-1-1--0----------------------------------|
|-4-4-4-4--4-4-0----2-2-2----2----0----------------------------------|
|-2-----------------2-2-2----2----0----------------------------------|
|--------------------------------------------------------------------|

verse three
              F#m C#m       Bm
 rolls the     riot van    and these lads just wind the coppers up
|--------------2----4-------2----------------------------------------|
|--------------2----5-------3----------------------------------------|
|--------------2----6-------4----------------------------------------|
|--------------4----6-------4----------------------------------------|
|-------------------4-------2----------------------------------------|
|--------------------------------------------------------------------|

              F#m C#m       Bm
                           They ask why they don't catch proper crooks
|--------------2----4-------2----------------------------------------|
|--------------2----5-------3----------------------------------------|
|--------------2----6-------4----------------------------------------|
|--------------4----6-------4----------------------------------------|
|-------------------4-------2----------------------------------------|
|--------------------------------------------------------------------|

              F#m C#m       Bm
 			    Get thier address and thier names
|--------------2----4-------2----------------------------------------|
|--------------2----5-------3----------------------------------------|
|--------------2----6-------4----------------------------------------|
|--------------4----6-------4----------------------------------------|
|-------------------4-------2----------------------------------------|
|--------------------------------------------------------------------|

              F#m C#m       Bm
              took                           But he couldn't care ...
|--------------2----4-------2----------------------------------------|
|--------------2----5-------3----------------------------------------|
|--------------2----6-------4----------------------------------------|
|--------------4----6-------4----------------------------------------|
|-------------------4-------2----------------------------------------|
|--------------------------------------------------------------------|


solo
 N.C                            N.C
less
|------------------------------|-------------------------------------|
|------------------------------|-------------------------------------|
|------------------------------|-------------------------4/9--\2-----|
|---------------9\4---4----2---|----------------4/11-----------------|
|-0-----9\4--------------------|-0-----9\4---------------------------|
|------------------------------|-------------------------------------|


verse four and outro
              F#m C#m       Bm
   Thrown in the riot van and all the coppers kicked him in
|--------------2----4-------2----------------------------------------|
|--------------2----5-------3----------------------------------------|
|--------------2----6-------4----------------------------------------|
|--------------4----6-------4----------------------------------------|
|-------------------4-------2----------------------------------------|
|--------------------------------------------------------------------|

              F#m C#m       Bm
                           And there was no way he could win
|--------------2----4-------2----------------------------------------|
|--------------2----5-------3----------------------------------------|
|--------------2----6-------4----------------------------------------|
|--------------4----6-------4----------------------------------------|
|-------------------4-------2----------------------------------------|
|--------------------------------------------------------------------|

              F#m C#m       Bm
 			    Just had to take it on the chin
|--------------2----4-------2----------------------------------------|
|--------------2----5-------3----------------------------------------|
|--------------2----6-------4----------------------------------------|
|--------------4----6-------4----------------------------------------|
|-------------------4-------2----------------------------------------|
|--------------------------------------------------------------------|

              F#m C#m       Bm

|--------------2----4-------2----------------------------------------|
|--------------2----5-------3----------------------------------------|
|--------------2----6-------4----------------------------------------|
|--------------4----6-------4----------------------------------------|
|-------------------4-------2----------------------------------------|
|--------------------------------------------------------------------|


when the sun goes down (scummy)

verses one and two (guitar 1)
  B                       Eb7      E7
   1.I said who's that girl there   I wonder what went wrong so that
   2.And   what   a  scummy man     Just give him half a chance Id bet
|---------------------x----------------------------------------------|
|-x-------------------x----8----x--9----------------------------x----|
|-8-------------------x----6----x--8----------------------------x----|
|-9-------------------x----8----x--9----------------------------x----|
|-9-------------------x----6----x--7---------------------------------|
|-7-------------------x----------------------------------------------|
     B7                           E7                           B7
 she had to roam the streets she dun't do major credit cards I doubt
 he'd rob you if he can           Can see it in his eyes yeah...got
|--------------------------------------------------------------------|
|----4----------------------x-----9--------------------x-------4-----|
|----3----------------------x-----8--------------------x-------3-----|
|----4----------------------x-----9--------------------x-------4-----|
|----2----------------------x-----7--------------------x-------2-----|
|--------------------------------------------------------------------|
                                     C#m            F#5 E5 D# C# D#
  she does recipts It all not quite legitimate
   a driving ban      amoung ..... offences
|--------------------------------------------------------------------|
|---------------------x--------------5--------x-(5)/--------7-7--7---|
|---------------------x--------------6--------x-(6)/--11-9--8-6--8---|
|---------------------x--------------6--------x-(6)/--11-9--8-6--8---|
|---------------------x--------------4--------x-(4)/--9--7--6-4--6---|
|--------------------------------------------------------------------|


verse three
  G#m                      D#m                 G#m
     And ive seen him with girls of the night  and he told Roxanne to
|--------------------------------------------------------------------|
|-12--------------x---------7---------------x--12--------------------|
|-13--------------x---------8---------------x--13--------------------|
|-13--------------x---------8------------------13--------------------|
|-11-----------------------------------------------------------------|
|--------------------------------------------------------------------|
         D#m             G#m                      D#m
  put on her red light      There all infected but he'll be alright
|--------------------------------------------------------------------|
|--------7------------x--12------------------x----7------------------|
|--------8------------x--13------------------x----8------------------|
|--------8------------x--13------------------x----8------------------|
|--------x-----------------------------------------------------------|
|--------------------------------------------------------------------|
                C#m      D#m        E7         F#7
  'cause he's a scumbag don't you know
|---------------------x---------x----------x-------------------------|
|-x-------------5---5-x---7---7-x----9---9-x---11--------------------|
|-x-------------6---6-x---8---8-x----8---8-x---10--------------------|
|-x-------------6---6-----8---8------9---9-----11--------------------|
|---------------4---4-----6---6------7---7-----9---------------------|
|--------------------------------------------------------------------|
                                  B
  I said he's a scumbag don't you know
|---------------------------------2----------------------------------|
|---------------------------------3----------------------------------|
|---------------------------------4----------------------------------|
|---------------------------------4----------------------------------|
|---------------------------------2----------------------------------|
|--------------------------------------------------------------------|

interlude

  Gm F#m Bm                                              Gm F#m Bm
(guitar 1)
|--------------------------------------------------------------------|
|--------3-------------------------------------------------------3---|
|-4--3---4------------------------------------------------4--3---4---|
|-5--4---4------------------------------------------------5--4---4---|
|-5--4---2------------------------------------------------5--4---2---|
|-3--2----------------------------------------------------3--2-------|
||
||(guitar 2)
|--------------------------------------------------------------------|
|------------<3>-<3>--<3>-<3>--<3>-<3>---<3>---<3>---<3>-------------|
|------------<3>-<3>--<3>-<3>--<3>-<3>---<3>---<3>---<3>-------------|
|------------<3>-<3>--<3>-<3>--<3>-<3>---<3>---<3>---<3>-------------|
|------------<3>-<3>--<3>-<3>--<3>-<3>---<3>---<3>---<3>-------------|
|--------------------------------------------------------------------|

  Gm F#m Bm                                              Gm F#m Bm
(guiar 1)
|--------------------------------------------------------------------|
|--------3-------------------------------------------------------3---|
|-4--3---4------------------------------------------------4--3---4---|
|-5--4---4------------------------------------------------5--4---4---|
|-5--4---2------------------------------------------------5--4---2---|
|-3--2----------------------------------------------------3--2-------|
||                   Bm
||(guitar 2)
|--------------------------------------------------------------------|
|---------------------3--3--3--3------3-3-3-3-3----------------------|
|---------------------4--4--4--4------4-4-4-4-4----------------------|
|---------------------4--4--4--4------4-4-4-4-4----------------------|
|---------------------2--2--2--2------2-2-2-2-2----------------------|
|--------------------------------------------------------------------|

  Gm F#m Bm                                              Gm F#m Bm
(guitar 1)
|--------------------------------------------------------------------|
|--------3-------------------------------------------------------3---|
|-4--3---4------------------------------------------------4--3---4---|
|-5--4---4------------------------------------------------5--4---4---|
|-5--4---2------------------------------------------------5--4---2---|
|-3--2----------------------------------------------------3--2-------|
||                    Bm
||(guitar 2)
|--------------------------------------------------------------------|
|---------------------3-3-3-3-3-3-3-3-3-3-3-3-3-3-3------------------|
|---------------------4-4-4-4-4-4-4-4-4-4-4-4-4-4-4------------------|
|---------------------4-4-4-4-4-4-4-4-4-4-4-4-4-4-4------------------|
|---------------------2-2-2-2-2-2-2-2-2-2-2-2-2-2-2------------------|
|--------------------------------------------------------------------|

(guitar 1)
|--------------------------------|
|--------3-----------------------|
|-4--3---4-----------------------|
|-5--4---4-----------------------|
|-5--4---2-----------------------|
|-3--2---------------------------|
||
||(guitar 2)
|--------------------------------|
|--------------------------------|
|--------------------------------|
|--------------------------0-2-4-|
|----------------------2-2-------|
|----------3-3--2-2--2-----------|

 (both guitars)
|--------------------------------|         |-------------------------|
|--------------------------------|         |-------------------------|
|--------------------------------|         |-------------------------|
|--------------------------0-2-4-| x3 THEN |-----------------4-2-0---|
|----------------------2-2-------|         |-------------2-2---------|
|----------3-3--2-2--2-----------|         |-3-3--2-2--2-------------|

verse four (No guitars only drums and bass)

Although you're trying not to listen
I bet your eyes are staring at the ground
She maks a subtle proposition
Im sorry love i'll have to turn you down

pre courus (guitar 1)
                              Gm       F#       Bm
 And he must be up to summot                    Want half a chance
|--------------------------------------------------------------------|
|-----------------------------------------------3-3-x-x-3-3-x-x------|
|---------------------------x-4-4-x-x--3-3-x-x--4-4-x-x-4-4-x-x------|
|---------------------------x-5-5-x-x--4-4-x-x--4-4-x-x-4-4-x-x------|
|---------------------------x-5-5-x-x--4-4-x-x--2-2-x-x-2-2-x-x------|
|---------------------------x-3-3-x-x--2-2-x-x-----------------------|
     Gm       F#       Bm                     Gm       F#
  ...more than likly   I got a feeling in my stomache
|--------------------------------------------------------------------|
|----------------------3-3-x-x-3-3-x-x-------------------------------|
|--x-4-4-x-x--3-3-x-x--4-4-x-x-4-4-x-x-------x-4-4-x-x--3-3-x-x------|
|--x-5-5-x-x--4-4-x-x--4-4-x-x-4-4-x-x-------x-5-5-x-x--4-4-x-x------|
|--x-5-5-x-x--4-4-x-x--2-2-x-x-2-2-x-x-------x-5-5-x-x--4-4-x-x------|
|--x-3-3-x-x--2-2-x-x------------------------x-3-3-x-x--2-2-x-x------|
  Bm                       Gm       F#       Bm
  I start to wonder what his story might be what....might be  yeah
|--------------------------------------------------------------------|
|-3-3-x-x-3-3-x-x----------------------------3-3-x-x-3-3-x-x---------|
|-4-4-x-x-4-4-x-x--------x-4-4-x-x--3-3-x-x--4-4-x-x-4-4-x-x---------|
|-4-4-x-x-4-4-x-x--------x-5-5-x-x--4-4-x-x--4-4-x-x-4-4-x-x---------|
|-2-2-x-x-2-2-x-x--------x-5-5-x-x--4-4-x-x--2-2-x-x-2-2-x-x---------|
|------------------------x-3-3-x-x--2-2-x-x--------------------------|


chourus one (bouth guitars)
 E5        F#5       B5
 They say it changes when the sun goes down                      yeah
|--------------------------------------------------------------------|
|--------------------------------------------------------------------|
|-9--9----9---9/11-----11--11----------------------------------------|
|-9--9----9---9/11-----11--11---9---9---9-----9-9-x------------------|
|-7--7----7---7/9------9---9----9---9---9-----9-9-x------------------|
|-------------------------------7---7---7-----7-7-x------------------|

 E5        F#5       B5
 They say it changes when the sun goes down
|--------------------------------------------------------------------|
|--------------------------------------------------------------------|
|-9--9----9---9/11-----11--11----------------------------------------|
|-9--9----9---9/11-----11--11---9---9---9-----9-9-x------------------|
|-7--7----7---7/9------9---9----9---9---9-----9-9-x------------------|
|-------------------------------7---7---7-----7-7-x------------------|

 E5        F#5       B5
 They say it changes when the sun goes down
|--------------------------------------------------------------------|
|--------------------------------------------------------------------|
|-9--9----9---9/11-----11--11----------------------------------------|
|-9--9----9---9/11-----11--11---9---9---9-----9-9-x------------------|
|-7--7----7---7/9------9---9----9---9---9-----9-9-x------------------|
|-------------------------------7---7---7-----7-7-x------------------|

 E5      F#5         B5                    A        F#
 Around  here                             around    here     arh
|--------------------------------------------------------------------|
|--------------------------------------------------------------------|
|-9-9-9--9/11-11--11-----------------------6---------3---------------|
|-9-9-9--9/11-11--11--9-9-9-----9-9-x------7---------4---------------|
|-7-7-7--7/9--9---9---9-9-9-----9-9-x------7---------4---------------|
|---------------------7-7-7-----7-7-x------5---------2---------------|


brige to verse five (both guitars)
                                                         And look here
|--------------------------------|         |-------------------------|
|--------------------------------|         |-------------------------|
|--------------------------------|         |-------------------------|
|--------------------------0-2-4-| x3 THEN |-----------------4-2-0---|
|----------------------2-2-------|         |-------------2-2---------|
|----------3-3--2-2--2-----------|         |-3-3--2-2--2-------------|

     Gm       F#       Bm                     Gm       F#
 comes a Ford Mondeo    Isnt     he           Mr.Inconspicuois
|--------------------------------------------------------------------|
|----------------------3-3-x-x-3-3-x-x-------------------------------|
|--x-4-4-x-x--3-3-x-x--4-4-x-x-4-4-x-x-------x-4-4-x-x--3-3-x-x------|
|--x-5-5-x-x--4-4-x-x--4-4-x-x-4-4-x-x-------x-5-5-x-x--4-4-x-x------|
|--x-5-5-x-x--4-4-x-x--2-2-x-x-2-2-x-x-------x-5-5-x-x--4-4-x-x------|
|--x-3-3-x-x--2-2-x-x------------------------x-3-3-x-x--2-2-x-x------|

  Bm                       Gm       F#       Bm
 And he doesnt even       have to say 'owt  she understand she
|--------------------------------------------------------------------|
|-3-3-x-x-3-3-x-x----------------------------3-3-x-x-3-3-x-x---------|
|-4-4-x-x-4-4-x-x--------x-4-4-x-x--3-3-x-x--4-4-x-x-4-4-x-x---------|
|-4-4-x-x-4-4-x-x--------x-5-5-x-x--4-4-x-x--4-4-x-x-4-4-x-x---------|
|-2-2-x-x-2-2-x-x--------x-5-5-x-x--4-4-x-x--2-2-x-x-2-2-x-x---------|
|------------------------x-3-3-x-x--2-2-x-x--------------------------|

     Gm       F#       Bm                 N.C
  here to get picked up I bet shes delighted when....him   pulling
|--------------------------------------------------------------------|
|----------------------3-3-x-x-3-3-x-x-------------------------------|
|--x-4-4-x-x--3-3-x-x--4-4-x-x-4-4-x-x-------------------------------|
|--x-5-5-x-x--4-4-x-x--4-4-x-x-4-4-x-x--------------------0-2-4------|
|--x-5-5-x-x--4-4-x-x--2-2-x-x-2-2-x-x----------------2-2------------|
|--x-3-3-x-x--2-2-x-x---------------------3-3--2-2--2----------------|

 in...eye  because she must be...freezing Scantily...beneath sky
|--------------------------------------------------------------------|
|--------------------------------------------------------------------|
|--------------------------------------------------------------------|
|-----------------0-2-4-------------------0-2-4----------------------|
|-------------2-2---------------------2-2--------------------2-2-----|
|-3-3--2-2--2-------------3-3--2-2--2------------3-3--2-2--2---------|

  Bm
 She don't stop in the winter no
|--------------------------------------------------------------------|
|-3--3--------3-----------3------------------------------------------|
|-4--4--------4-----------4------------------------------------------|
|-4--4--------4-----------4------------------------------------------|
|-2--2--------2-----------2------------------------------------------|
|--------------------------------------------------------------------|


chorus two
 E5        F#5       B5
 They say it changes when the sun goes down                      yeah
|--------------------------------------------------------------------|
|--------------------------------------------------------------------|
|-9--9----9---9/11-----11--11----------------------------------------|
|-9--9----9---9/11-----11--11---9---9---9-----9-9-x------------------|
|-7--7----7---7/9------9---9----9---9---9-----9-9-x------------------|
|-------------------------------7---7---7-----7-7-x------------------|

 E5        F#5       B5
 They say it changes when the sun goes down                       and
|--------------------------------------------------------------------|
|--------------------------------------------------------------------|
|-9--9----9---9/11-----11--11----------------------------------------|
|-9--9----9---9/11-----11--11---9---9---9-----9-9-x------------------|
|-7--7----7---7/9------9---9----9---9---9-----9-9-x------------------|
|-------------------------------7---7---7-----7-7-x------------------|

 E5        F#5       B5
 They say it changes when the sun goes down
|--------------------------------------------------------------------|
|--------------------------------------------------------------------|
|-9--9----9---9/11-----11--11----------------------------------------|
|-9--9----9---9/11-----11--11---9---9---9-----9-9-x------------------|
|-7--7----7---7/9------9---9----9---9---9-----9-9-x------------------|
|-------------------------------7---7---7-----7-7-x------------------|

 E5      F#5         B5
 Around  here
|--------------------------------------------------------------------|
|--------------------------------------------------------------------|
|-9-9-9--9/11-11--11-------------------------------------------------|
|-9-9-9--9/11-11--11--9-9-9-----9-9-x--------------------------------|
|-7-7-7--7/9--9---9---9-9-9-----9-9-x--------------------------------|
|---------------------7-7-7-----7-7-x--------------------------------|

 E5        F#5       B5
 They say it changes when the sun goes down
|--------------------------------------------------------------------|
|--------------------------------------------------------------------|
|-9--9----9---9/11-----11--11----------------------------------------|
|-9--9----9---9/11-----11--11---9---9---9-----9-9-x------------------|
|-7--7----7---7/9------9---9----9---9---9-----9-9-x------------------|
|-------------------------------7---7---7-----7-7-x------------------|

 E5        F#5       B5
  Over   the river     going   out of town
|--------------------------------------------------------------------|
|--------------------------------------------------------------------|
|-9--9----9---9/11-----11--11----------------------------------------|
|-9--9----9---9/11-----11--11---9---9---9-----9-9-x------------------|
|-7--7----7---7/9------9---9----9---9---9-----9-9-x------------------|
|-------------------------------7---7---7-----7-7-x------------------|

 E5        F#5       B5
 They say it changes when the sun goes down
|--------------------------------------------------------------------|
|--------------------------------------------------------------------|
|-9--9----9---9/11-----11--11----------------------------------------|
|-9--9----9---9/11-----11--11---9---9---9-----9-9-x------------------|
|-7--7----7---7/9------9---9----9---9---9-----9-9-x------------------|
|-------------------------------7---7---7-----7-7-x------------------|

 E5      F#5         B5                    A        F#
 Around  here                             around    here          Arh
|--------------------------------------------------------------------|
|--------------------------------------------------------------------|
|-9-9-9--9/11-11--11-----------------------6---------3---------------|
|-9-9-9--9/11-11--11--9-9-9-----9-9-x------7---------4---------------|
|-7-7-7--7/9--9---9---9-9-9-----9-9-x------7---------4---------------|
|---------------------7-7-7-----7-7-x------5---------2---------------|

outro
 B                    Eb7    E7
    And what a scummy man    Just give him half a chance i bet he'll
|---------------------6---x------------------------------------------|
|---------------------8---x--9--------------------------------x------|
|-8-------------------7---x--8--------------------------------x------|
|-9-------------------8---x--9--------------------------------x------|
|-9-------------------6------7---------------------------------------|
|-7------------------------------------------------------------------|
  B7                     E7                             B7
   rob you if he can     See it in his eyes yeah that he got a nasty
|--------------------------------------------------------------------|
|--4----------------x-----9--------------------x---------4-----------|
|--3----------------x-----8--------------------x---------3-----------|
|--4----------------x-----9--------------------x---------4-----------|
|--2----------------x-----7--------------------x---------2-----------|
|--------------------------------------------------------------------|

                C#m      D#m        E7         F#7
 plan  hope your not involved at all
|---------------------x---------x----------x-------------------------|
|----x----------5---5-x---7---7-x----9---9-x---11--------------------|
|----x----------6---6-x---8---8-x----8---8-x---10--------------------|
|----x----------6---6-----8---8------9---9-----11--------------------|
|---------------4---4-----6---6------7---7-----9---------------------|
|--------------------------------------------------------------------|

                              B
|-10--10--10--10--10----9-----7--------------------------------------|
|-11--11--11--11--11----11----7--------------------------------------|
|-11--11--11--11--11----11----8--------------------------------------|
|-----------------------------9--------------------------------------|
|-----------------------------9--------------------------------------|
|-----------------------------7--------------------------------------|


the view from the afternoon

(*intro* / *verse* / *break* / *Chorus* / *bridge* / *outro*)


*Intro*

Guitar 1 & 2

   A       D#
e|----------------------------------------------------------------|
B|---------8------------------------------------------------------|
G|-6-------8------------------------------------------------------|
D|-7--x24--8--x6 (you will understand by listening to the rhythm)-| x 3
A|-7-------6------------------------------------------------------|
E|-5--------------------------------------------------------------|


*Verse*


(these are the chords and where they are played)

Guitar 2
                                 "Set" "You"  "Up"
    A   G   C   E   A   E          C     D     E
e|-------------------------------------------------------------|
B|----------5---9-------9----------5-----7-----9---------------|
G|--6---4---5---9---6---9----------5-----7-----9---------------|
D|--7---5---5---9---7---9----------5-----7-----9---------------|
A|--7---5---3---7---7---7----------3-----5-----7---------------|
E|--5---3-----------5------------------------------------------|


                                "Tain" "ment" "but"
    A   G   C   E   A   E          C     D     E
e|-------------------------------------------------------------|
B|----------5---9-------9----------5-----7-----9---------------|
G|--6---4---5---9---6---9----------5-----7-----9---------------|
D|--7---5---5---9---7---9----------5-----7-----9---------------|
A|--7---5---3---7---7---7----------3-----5-----7---------------|
E|--5---3-----------5------------------------------------------|


  "Tonight Ther'll be some love"
    A   G   C   E   A   E          C     D     E
e|--------------------------------------------------------------|
B|----------5---9-------9----------5-----7-----9----------------|
G|--6---4---5---9---6---9----------5-----7-----9----------------|
D|--7---5---5---9---7---9----------5-----7-----9----------------|
A|--7---5---3---7---7---7----------3-----5-----7----------------|
E|--5---3-----------5-------------------------------------------|
                                 |-^-----^-----^----------------|

                                (guitar 1 plays this
                                 bit simultaneously)


"Tonight there'll be a ruckus yeah,
                Regardless of what's gone before"
    A   G   C   E   A   E   B   E
e|--------------------------------------------------------------|
B|----------5---9-------9-------9-------------------------------|
G|--6---4---5---9---6---9---7---9-------------------------------|
D|--7---5---5---9---7---9---9---9-------------------------------|
A|--7---5---3---7---7---7---9---7-------------------------------|
E|--5---3-----------5-------7-----------------------------------|


Guitar 2

    A   G   C   E   A   E   B   E
e|--------------------------------------------------------------|
B|----------5---9-------9-------9-------------------------------|
G|--6---4---5---9---6---9---7---9-------------------------------|
D|--7---5---5---9---7---9---9---9-------- x 2 ------------------|
A|--7---5---3---7---7---7---9---7-------------------------------|
E|--5---3-----------5-------7-----------------------------------|

(guitar 1 Plays nothing for the 2 loops of the above, then....)


Guitar 2

    A   G   C   E   A   E          C     D     E
e|-------------------------------------------------------------|
B|----------5---9-------9----------5-----7-----9---------------|
G|--6---4---5---9---6---9----------5-----7-----9---------------|
D|--7---5---5---9---7---9----------5-----7-----9---------------|
A|--7---5---3---7---7---7----------3-----5-----7---------------|
E|--5---3-----------5------------------------------------------|


Guitar 1

(this bit is played with a cool rhythm, listen to track to get hang of it)

             "fancy dress"
    A                              ^     ^     ^
e|-------------------------------------------------------------|
B|--14--14-14--14--14-14-----------5-----7-----9---------------|
G|--14--14-14--14--14-14-----------5-----7-----9---------------|
D|--14--14-14--14--14-14-----------5-----7-----9---------------|
A|--12--12-12--12--12-12-----------3-----5-----7---------------|
E|-------------------------------------------------------------|


Guitar 2

    A   G   C   E   A   E   B   E
e|-------------------------------------------------------------|
B|----------5---9-------9-------9------------------------------|
G|--6---4---5---9---6---9---7---9------------------------------|
D|--7---5---5---9---7---9---9---9------------------------------|
A|--7---5---3---7---7---7---9---7------------------------------|
E|--5---3-----------5-------7----------------------------------|

Guitar 1

    A
e|-------------------------------------------------------------|
B|--14--14-14--14--14-14---------------------------------------|
G|--14--14-14--14--14-14---------------------------------------|
D|--14--14-14--14--14-14---------------------------------------|
A|--12--12-12--12--12-12---------------------------------------|
E|-------------------------------------------------------------|


*Break*

Guitar 2
e|--------------------------------------------------------------|
B|--------------------------------------------------------------|
G|--6-6-6---4-4-4---1-------------------------------------------|
D|--7-7-7---5-5-5---2-------------------------------------------|
A|--7-7-7---5-5-5---2-------------------------------------------|
E|--5-5-5---3-3-3---0-------------------------------------------|

Guitar 1
e|--------------------------------------------------------------|
B|--------------------------------------------------------------|
G|--------------------------------------------------------------|
D|--------------------------------------------------------------|
A|-----------------------------12--10---------------------------|
E|--5-5-5---3-3-3---0-0-0--------------12-----------------------|

Guitar 2
e|--------------------------------------------------------------|
B|--------------------------------------------------------------|
G|--6-6-6---4-4-4---1-------------------------------------------|
D|--7-7-7---5-5-5---2-------------------------------------------|
A|--7-7-7---5-5-5---2-------------------------------------------|
E|--5-5-5---3-3-3---0-------------------------------------------|

Guitar 1
e|--------------------------------------------------------------|
B|--------------------------------------------------------------|
G|--------------------------------------------------------------|
D|--------------------------------------------------------------|
A|-----------------------------12--10h12-15---------------------|
E|--5-5-5---3-3-3---0-0-0---------------------------------------|

Guitar 2
e|--------------------------------------------------------------|
B|--------------------------------------------------------------|
G|--6-6-6---4-4-4---1-------------------------------------------|
D|--7-7-7---5-5-5---2-------------------------------------------|
A|--7-7-7---5-5-5---2-------------------------------------------|
E|--5-5-5---3-3-3---0-------------------------------------------|

Guitar 1
e|--------------------------------------------------------------|
B|--------------------------------------------------------------|
G|--------------------------------------------------------------|
D|--------------------------------------------------------------|
A|-----------------------------14-14-10-------------------------|
E|--5-5-5---3-3-3---0-0-0---------------12----------------------|


Guitar 2
e|--------------------------------------------------------------|
B|--------------------------------------------------------------|
G|--6-6-6---4-4-4---1-------------------------------------------|
D|--7-7-7---5-5-5---2-------------------------------------------|
A|--7-7-7---5-5-5---2-------------------------------------------|
E|--5-5-5---3-3-3---0-------------------------------------------|

Guitar 1
e|--------------------------------------------------------------|
B|--------------------------------------------------------------|
G|--------------------------------------------------------------|
D|--------------------------------------------------------------|
A|------------------------------7~--5~--3~~---------------------|
E|--5-5-5---3-3-3---0-0-0---------------------------------------|


*Chorus*

"And she won't be surprised"

Guitar 2

e|--------------------------------------------------------------|
B|--------------------------------------------------------------|
G|---------7-9-7---------------7-9-7~---------------------------|
D|--7--10--------10-----7--10------------------ x 4 ------------|
A|--------------------------------------------------------------|
E|--------------------------------------------------------------|

Guitar 1

   F
e|--------------------------------------------------------------|
B|-10-10-10-10-10-10-10-10-10-10-10-10-10-10-10-10--------------|
G|-10-10-10-10-10-10-10-10-10-10-10-10-10-10-10-10--------------|
D|-10-10-10-10-10-10-10-10-10-10-10-10-10-10-10-10----- 1 ------|
A|-8--8--8--8--8--8--8--8--8--8--8--8--8--8--8--8---------------|
E|--------------------------------------------------------------|

   D
e|--------------------------------------------------------------|
B|-7-7-7-7-7-7-7-7-7-7-7-7-7-7-7-7------------------------------|
G|-7-7-7-7-7-7-7-7-7-7-7-7-7-7-7-7------------------------------|
D|-7-7-7-7-7-7-7-7-7-7-7-7-7-7-7-7--------------------- 2 ------|
A|-5-5-5-5-5-5-5-5-5-5-5-5-5-5-5-5------------------------------|
E|--------------------------------------------------------------|

   F
e|--------------------------------------------------------------|
B|-10-10-10-10-10-10-10-10-10-10-10-10-10-10-10-10--------------|
G|-10-10-10-10-10-10-10-10-10-10-10-10-10-10-10-10--------------|
D|-10-10-10-10-10-10-10-10-10-10-10-10-10-10-10-10----- 3 ------|
A|-8--8--8--8--8--8--8--8--8--8--8--8--8--8--8--8---------------|
E|--------------------------------------------------------------|

   D
e|--------------------------------------------------------------|
B|-7-7-7-7-7-7-7-7-7-7-7-7-7-7-7-7------------------------------|
G|-7-7-7-7-7-7-7-7-7-7-7-7-7-7-7-7------------------------------|
D|-7-7-7-7-7-7-7-7-7-7-7-7-7-7-7-7--------------------- 4 ------|
A|-5-5-5-5-5-5-5-5-5-5-5-5-5-5-5-5------------------------------|
E|--------------------------------------------------------------|


"And you should bear that in mind tonight"

Guitar 1 & 2

(both do same as guitar 1 above but a muted chords between each strum)

Eg.

e|----------------|
B|-10-x--10-x--10-|
G|-10-x--10-x--10-|
D|-10-x--10-x--10-| (Listen to the track to understand fully)
A|-8--x--8--x--8--|
E|----------------|


*Bridge*

(This is the part where it goes quiet and both guitars share a chord each)


Guitar 2

    A     C     A     B
e|--------------------------------------------------------------|
B|--------5-----------------------------------------------------|
G|--6-----5-----6-----8-----------------------------------------|
D|--7-----5-----7-----9-----------------------------------------|
A|--7-----3-----7-----9-----------------------------------------|
E|--5-----------5-----7-----------------------------------------|

Guitar 1

       G     E     E     E
e|--------------------------------------------------------------|
B|-----------9-----9-----9--------------------------------------|
G|-----4-----9-----9-----9--------------------------------------|
D|-----5-----9-----9-----9--------------------------------------|
A|-----5-----7-----7-----7--------------------------------------|
E|-----3--------------------------------------------------------|


*Outro*

( Same as intro )


Final chord is


e|--4~--
B|--6~--
G|--5~--
D|--6~--
A|--4~--
E|------


red light indercates doors are sercured


Intro

1st guitar
e------------------|
B------------------|
G------------------|
D------------------|
A----------5--4----|
E-2-2-2--5------5-4|

2nd guitar (you have to listen to get the timing)
e----------|
B----------|
G-----11---|
D-----11---|
A-----9----|
E----------|

Verse

e------------------|
B------------------|
G------------------|
D------------------|
A----------5--4----|
E-2-2-2--5------5-4|

This comes later
e------------------|
B------4-----------|
G--4-2-4--9-10-11--|
D--4-2-4--9-10-11--|
A--2-0-2--7-8--9---|
E------------------|

Verse 2(it’s the same as the intro)

1st guitar
e------------------|
B------------------|
G------------------|
D------------------|
A----------5--4----|
E-2-2-2--5------5-4|

2nd guitar
e----------|
B----------|
G-----11---|
D-----11---|
A-----9----|
E----------|

This comes later

e------------|
B------------|
G--4---4-----|
D--4-7-4--7--|
A--2-7-2--7--|
E----5----5--|

e--------------|
B--------------|
G--4---4--9-11-|
D--4-7-4--9-11-|
A--2-7-2--7-8--|
E----5---------|

Solo


1st guitar
e------------------|
B------------------|
G------------------|
D------------------|
A----------5--4----|
E-2-2-2--5------5-4|


2nd guitar
e--------------------------------|
B--------------------------------|
G--------------------------------|
D--------------------------------|
A--9-7--4------------------------|
E---------7-5-7-5--5-5-7-5-7-5---|

e----------------------------------------------------|
B----------------------------------------------------|
G----------------------------------------------------|
D---------------------------------------7------7h9---|
A------------------------4-7-4-7--9-7-9---9--9-------|
E--7-5-7-5-5-2--0-2--5-7-----------------------------|

e-------------------------------------------------|
B-------------------------------------------------|
G-------------------------------------------------|
D--9-9-9h7-------7—--9/7--9-9-9h7-------7----9/7--|
A----------9-7-9—--9--------------9-7-9---9-------|
E-------------------------------------------------|

e----------------------------------------------------|
B----------------------------------------------------|
G----------------------------------------------------|
D--9-9-9h7-------7----9/7—-9/11-9-7-9-—9/11-9-7-9-7--|
A----------9-7-9—--9---------------------------------|
E----------------------------------------------------|


e-----------------------------------------|
B-----------------------------------------|
G-----------------------------------------|
D--9-9-9-9--7-7-7------------------7-9-10b|
A------------------9-9-9--7-7-7--9--------|
E-----------------------------------------|


e--------------|
B--------------|
G--4---4--9-11-|
D--4-7-4--9-11-|
A--2-7-2--7-8--|
E----5---------|


3rd verse/ending

1st guitar
e------------------|
B------------------|
G----------7-6-----|
D--4-4-4-7-----7-6-|
A------------------|
E------------------|


2nd guitar
e------------------|
B------------------|
G------------------|
D------------------|
A----------5--4----|
E-2-2-2--5------5-4|


mardy bum


Chords:

	E  A  D  G  B  E
D	x  5  7  7  7  x
F#	x  9  11 11 11 x
G	x  10 12 12 12 x
F#m	x  9  11 11 10 11
Em	x  7  9  9  8  7
A	5  7  7  6  5  5
G(2)	3  5  5  4  3  3
Bm	7  9  9  7  7  7
F#5	2  4  4  x  x  x
G5	3  5  5  x  x  x
A5	5  7  7  x  x  x


Intro

e -7-7-7-7-7-7-7-7-7-7-7-7-5-5-5-5-3-3-3-3-0-0-0-0--|
B -8-8-8-8-8-8-8-8-8-8-8-8-7-7-7-7-5-5-5-5-2-2-2-2--|

D	F#	G	F#m	Em	A	x2

Verse

D		F#
Well now then Mardy Bum

G
I see your frown and it's like

F#m		Em
looking down the barrel of a gun

		D
And it goes off

			F#
And out come all these words

	     G		   F#m
Oh there's a very pleasant side to you

  Em			A
A side I much prefer, it's one that


Chorus


G(2)			A
Laughs and jokes around

	D		A
Remember cuddles in the kitchen yeah

	Bm
To get things off the ground and it was

G(2)	       A
     up up and away


	    D		  A
oh but it's right hard to remember that

     Bm
on a day like today when your all

G(2)		A
    argumentative and you've


got the face on


D	F#	G	F#m	Em	A


Verse 2

D		    F#
Well now then Mardy Bum

	  G	  F#m
Oh I'm in trouble again

Em	  A		    D
aren't I? I thought as much.

			F#
Coz you've turned over there

	     G		F#m
Pulling that silent disappointment face

Em				A
The one that I can't bear.


Can't we...


Chorus 2

G(2)		A
Laugh and joke around

	D		A
Remember cuddles in the kitchen yeah

	Bm
To get things off the ground and it was

G(2)	      A
    up up and away


	    D		  A
oh but it's right hard to remember that

     Bm
on a day like today when your all

G(2)		A
    argumentative and you've


got the face on.


Middle 8

F#5		     G5
Yeah i'm sorry I was late

F#5					 G5
I missed the train and the traffic was a state

F#5				     G5
I can't be arsed to carry on in this debate that reoccurs

F#5					G5
Oh when you say I don't care of course i do

		A5
Yeah i clearly do.


Solo

D	F#	G	F#m	Em	A	x2


Chorus 3

G(2)		A
Laugh and joke around

	D		A
Remember cuddles in the kitchen yeah

	Bm
To get things off the ground and it was

G(2)	      A
    up up and away


	      D		       A
oh but still it's right hard to remember that

     Bm
on a day like today when your all    (Break - wait a bar)

G(2)		A
    argumentative and you've

		D
got the face on.


from ritz to ruble


Intro / Verse
(guitar 1)
e|-7----7-/-10----10--7----7-|
B|-7----7-/-10----10--8----8-|	Play this a load of times
G|-8----8-/-11----11--9----9-|
D|-9----9-/-12----12--9----9-|
A|-9----9-/-12----12--7----7-|
E|-7----7-/-10----10---------|

(guitar 2)
e|----------------------------------------|
B|----------------------------------------|
G|-16--14-11----11----------7---------9---|      x2
D|------------14----9---7-9-------7-9-----|
A|----------------------------------------|
E|----------------------------------------|

Chorus
(guitar 1)
e|--------------------------------------------------|
B|--------------------------------------------------|
G|--------------------------------------------------|
D|-------------------7-9-7-9--------9999999999999999|  x4
A|-5-7-5-7--7-9-7-9-----------------9999999999999999|
E|----------------------------------7777777777777777|
(guitar 2)
e|--------------------------------------------------|
B|--------------------------------------------------|
G|--------------------------------------------------|
D|-------------------7-9-7-9------------------------|  x3
A|-5-7-5-7--7-9-7-9-----------------14-12---9-7---7-|
E|--------------------------------------------------|
On the 4th time play this
(guitar 2)
e|-------------------------------------|
B|-------------------------------------|
G|-------------------------------------|
D|------------------7-9-7-9------------|
A|-5-7-5-7--7-9-7-9------------------5~|
E|-------------------------------------|

Verse
(guitar 1)
e|-7----7-/-10----10--7----7-|
B|-7----7-/-10----10--8----8-|	And again repeat loads
G|-8----8-/-11----11--9----9-| (But it has a slightly different
D|-9----9-/-12----12--9----9-| strumming pattern so u’ll have 2
A|-9----9-/-12----12--7----7-| Listen closely)
E|-7----7-/-10----10---------|

Chorus
(guitar 1)
e|------------------------------------------------------------------|
B|------------------------------------------------------------------|
G|------------------------------------------------------------------|
D|-------------------7-9-7-9--------9-9-9-9-9-9-9-9-9-9-9-9-9-9-9-9-|
A|-5-7-5-7--7-9-7-9-----------------9-9-9-9-9-9-9-9-9-9-9-9-9-9-9-9-|
E|----------------------------------7-7-7-7-7-7-7-7-7-7-7-7-7-7-7-7-|

(guitar 2)
e|--------------------------------------------------|
B|--------------------------------------------------|
G|--------------------------------------------------|
D|-------------------7-9-7-9------------------------|  x3
A|-5-7-5-7--7-9-7-9-----------------14-12---9-7---7-|
E|--------------------------------------------------|
On the 4th time play this
(guitar 2)
e|------------------------------------|
B|------------------------------------|
G|------------------------------------|
D|------------------7-9-7-9-----------|
A|-5-7-5-7—7-9-7-9------------------5~|
E|------------------------------------|

Bridge (clean guitar)
(guitar 1)
e|-7-7-7-7-7-7-7-7-7-7-7-7-7-7-7-7---10-10-10-10-10-10-10-10---7-7-7-7-7-7-7-7-|
B|-7-7-7-7-7-7-7-7-7-7-7-7-7-7-7-7---10-10-10-10-10-10-10-10---8-8-8-8-8-8-8-8-|
G|-8-8-8-8-8-8-8-8-8-8-8-8-8-8-8-8---11—11—11-11-11-11-11-11---9-9-9-9-9-9-9-9-|
D|-9-9-9-9-9-9-9-9-9-9-9-9-9-9-9-9---12-12-12-12-12-12-12-12---9-9-9-9-9-9-9-9-| x6
A|-9-9-9-9-9-9-9-9-9-9-9-9-9-9-9-9---12-12-12-12-12-12-12-12---7-7-7-7-7-7-7-7-|
E|-7-7-7-7-7-7-7-7-7-7-7-7-7-7-7-7---10-10-10-10-10-10-10-10-------------------|

Solo
e|-------------------------------------------------------------------------------------|
B|-------------------------------------------------------------------------------------|
G|-------------------------------------------------------------------------------------|
D|-------------------------------------------------------------------------------------|
A|-0-222222222----999-777-55555555---12121212-99-7-9----12121212-9-7-5-555555-77777777-|
E|-------------------------------------------------------------------------------------|

e|--------------------------------------------------------|
B|--------------------------------------------------------|
G|--------------------------------------------------------|
D|--------------------------------------------------------|
A|-22222222---999-777-55555555---1212121212-1414-99999999-|
E|--------------------------------------------------------|

e|-------------------------------------------------|
B|-------------------------------------------------|
G|-------------------------------------------------|
D|-------------------------------------------------|
A|-121212-141414-1717171717171717-1919191919191919-|
E|-------------------------------------------------|

e|------------------------------------------------------|
B|------------------------------------------------------|
G|16-16-16-16-16-16-14-14-11-11-11-11-11-11-------11-11-|
D|------------------------------------------14-14-------|
A|------------------------------------------------------|
E|------------------------------------------------------|

e|-------------------------------------------------------------------------|
B|-------------------------------------------------------------------------|
G|---------------------------------7-7-7-7-7-7-7-7---------9-9-9-9-9-9-9-9-|
D|-9-9-9-9-9-9-9-9-9-9-9-9-7-7-9-9-----------------7-7-9-9-----------------|
A|-------------------------------------------------------------------------|
E|-------------------------------------------------------------------------|

e|------------------------------------------------------|
B|------------------------------------------------------|
G|16-16-16-16-16-16-14-14-11-11-11-11-11-11-------11-11-|
D|------------------------------------------14-14-------|
A|------------------------------------------------------|
E|------------------------------------------------------|


e|-------------------------------------------------------------------------|
B|-------------------------------------------------------------------------|
G|---------------------------------7-7-7-7-7-7-7-7---------9-9-9-9-9-9-9-9-|
D|-9-9-9-9-9-9-9-9-9-9-9-9-7-7-9-9-----------------7-7-9-9-----------------|
A|-------------------------------------------------------------------------|
E|-------------------------------------------------------------------------|


perhaps vampire is a bit strong but

Intro

e----------------------------------------|
B----------------------------------------|
G-4-2----------2------4-2----------2-----|
D-----4--4-2-4---4-2------4--4-2-4---4-2-|
A----------------------------------------|
E----------------------------------------|

e----------------------|
B----------------------|
G----------------------|
D--4-2----------2------|
A------4--4-2-4---4-2--|
E----------------------|

e|----------------------|
B|----------------------|
G|-----------6-6--5-----|
D|-4-4--7-7--6-6--5-----|
A|-4-4--7-7--4-4--3-----|
E|-2-2--5-5-------------|


Verse

e|----------------------|
B|----------------------|
G|-----------6-6--------|
D|-4-4--7-7--6-6--5-5---|
A|-4-4--7-7--4-4--5-5---|
E|-2-2--5-5-------7-7---|

Post verse(try and play it quickly or just play the root)

e|----------------------|
B|----------------------|
G|----------------------|
D|--9-9-9-9--11-9--7----|
A|--9-9-9-9--11-9--7----|
E|--7-7-7-7--9--7--5----|

Then it’s the verse again
With some feedback throughout

Post verse
e|----------------------|
B|----------------------|
G|----------------------|
D|--9-9-9-9--11-9--7----|
A|--9-9-9-9--11-9--7----|
E|--7-7-7-7--9--7--5----|

This comes in half way through
e|----|
B|----|
G|----|
D|-9--|
A|-7--|
E|----|


Bridge part (with a phaser)

e|----------|
B|----------|
G|-12--11---|
D|-12--11---|
A|-10--9----|
E|----------|

Those 2 chords continue for a bit

1 guitar
e|------------------|
B|------------------|
G|------------------|
D|------------------|
A|---0--2--3--2--0--|
E|-2----------------|

e|--------------------------------------------|
B|--------------------------------------------|
G|--------------------------------------------|
D|------------------------------2-------------|
A|---0-2-3-----0-2-3-----0-2-3----4-2-3-2-0---| x2
E|-2---------2---------2----------------------|


2nd guitar with the solo
e|----------------------------------------|
B|----------------------------------------|
G|--------6--6-6-6-9-6-6-6-6-9-6-9-6-9-9--|
D|----7-9---------------------------------|
A|--9-------------------------------------|
E|----------------------------------------|

e|-----------------------------------|
B|-----------------------------------|
G|--------6------------------6-9-----|
D|----7-9----------------7-9-----9-7-|
A|--9-------7--7-7-7-7-9-------------|
E|-----------------------------------|

e|--------------------------------------------|
B|-------------------------------------7------|
G|-----6-9------6-9-------6-9------6-9---9----|
D|-7-9-----9-7\------9-7\-----9-7\---------7\-|
A|--------------------------------------------|
E|--------------------------------------------|

e|-----------------------------------------|
B|----------------------------------7------|
G|--6-9------6-9-------6-9------6-9---9----|
D|------9-7\------9-7\-----9-7\------------|
A|--------------------------------------9\-|
E|-----------------------------------------|


Outro

e|-1/2-2-2-2--4/5-5-5-5--8/9-9-9-9---------|
B|-1/2-2-2-2--4/5-5-5-5--8/9-9-9-9---------|
G|-1/2-2-2-2--4/5-5-5-5--8/9-9-9-9---------|
D|-----------------------------------------|
A|-----------------------------------------| x5
E|-----------------------------------------|
Suggest correction
What's this?
You can suggest a correction to this tab. Community and Mods will review your correction and vote to approve or reject it.
comments
print report bad tab
17 comments total. Showing first comments.
0 reply
skatersic666 3,205 wrote on June 2 2006, 08:39 am

i guess u did a copy n paste job for each of these tabs (as they all look familiar) i can even see my tabs in there.

But why is it in a weird song list order?

0 reply
yonni_man 294 wrote on June 2 2006, 10:17 am

Yeah what is with the order?

0 reply
topdogII 109 wrote on June 2 2006, 10:24 am

sorry about the order I messed it up

guest
You may want to rate the tab now too:
select rating
Please do not post tabs as comments. Select "correction" instead!