Oops, an error
Loading. Please wait.

When The Sun Goes Down Bass Tab

version 3
version 3

Whole song

86,105 views 114 this week
18 commentsread comments
1 2 3 4 5
x 84
add to favorites
launch autoscroll
font size
0
reset
guitar tuner
Autoscroll
slow
fast
+/-
esc
set tempo
stop
Help us to improve Ultimate-Guitar.com Take our survey!
×
Author
============================================================================
                  WHEN THE SUN GOES DOWN - Arctic Monkeys
============================================================================

Tuning: Standard


[Intro]

  Come in after 2 rounds of guitar
G|--------------------------------------------------------------------------|
D|-6--6--------6--6--------6------------------------------------------------|
A|-------6--6--------6--6-----6--4--6--7--9-(let ring)----------------------|
E|--------------------------------------------------------------------------|

G|--------------------------------------------------------------------------|
D|--------------------------------------------------------------------------|
A|-2----------2----------2----------2-2--2-2--2-2-2-2----------2------------|
E|------3--2-------3--2-------3--2-----------------------3--2-------12\-----|


[Verse 1]

G|--------------------------------------------------------------------------|
D|------------------0-2-4---------------------0-2-4-------------------------|
A|-------------2-2-----------------------2-2--------------------------------|
E|-3-3--2-2-2----------------3-3--2-2-2-------------------------------------|

G|--------------------------------------------------------------------------|
D|------------------0-2-4---------------------4-2-0-------------------------|
A|-------------2-2-----------------------2-2--------------------------------|
E|-3-3--2-2-2----------------3-3--2-2-2-------------------------------------|

Play 3 Times:


[Chorus 1]

G|--------------------------------------------------------------------------|
D|-2-2--4-4---------------2-2--4-4------------------------------------------|
A|-----------2-2-2-0-2--------------2-2-2-0-2-------------------------------|
E|--------------------------------------------------------------------------|

G|--------------------------------------------------------------------------|
D|-2-2--4-4---------------2-2--4-4------------------------------------------|
A|-----------2-2-2-0-2--------------2-2-2-0-2----0--------------------------|
E|--------------------------------------------------2-----------------------|


[Verse 2]

G|--------------------------------------------------------------------------|
D|------------------0-2-4---------------------0-2-4-------------------------|
A|-------------2-2-----------------------2-2--------------------------------|
E|-3-3--2-2-2----------------3-3--2-2-2-------------------------------------|

G|--------------------------------------------------------------------------|
D|------------------0-2-4---------------------4-2-0-------------------------|
A|-------------2-2-----------------------2-2--------------------------------|
E|-3-3--2-2-2----------------3-3--2-2-2-------------------------------------|

  Play 2 times

Then:
G|--------------------------------------------------------------------------|
D|------------------0-2-4---------------------0-2-4-------------------------|
A|-------------2-2-----------------------2-2--------------------------------|
E|-3-3--2-2-2----------------3-3--2-2-2-------------------------------------|

G|--------------------------------------------------------------------------|
D|------------------0-2-4---------------------------------------------------|
A|-------------2-2-----------------------2-2-2-2----------------------------|
E|-3-3--2-2-2----------------3-3--2-2-2-------------------------------------|


[Chorus 2]

G|--------------------------------------------------------------------------|
D|-2-2--4-4---------------2-2--4-4------------------------------------------|
A|-----------2-2-2-0-2--------------2-2-2-0-2-------------------------------|
E|--------------------------------------------------------------------------|

  Play 4 Times

Then:
G|--------------------------------------------------------------------------|
D|-2-2--4-4---------------2-2--4-4------------------------------------------|
A|-----------2-2-2-0-2--------------2-2-2-0-2----0--------------------------|
E|--------------------------------------------------2/--7-(let ring)--------|

************************************

| /  Slide up
| \  Slide down

************************************
Suggest correction
comments
print report bad tab
18 comments total. Showing first comments. show 2 bad comments
+1 reply
El Jimbo 117 Feb 04, 2006 09:34 AM

this is perfect!

guest
You may want to rate the tab now too:
select rating
Wanna post a correction for this tab? Suggest correction