Oops, an error
Loading. Please wait.

When The Sun Goes Down Bass Tab

version 4
version 4

Whole song

1,311 views 1 this week
no commentswrite comment
1 2 3 4 5
excellent!
x 3
add to favorites
launch autoscroll
font size
0
reset
guitar tuner
Tab Pro tools
  • play this tab
  • loop segment
  • change instrument
  • show fretboard
  • metronome
×
Best way to learn
"When The Sun Goes Down"
Autoscroll
slow
fast
+/-
esc
set tempo
stop
Contributor
Artist: Arctic Monkeys

Album: Whatever People Say I Am That's What I Am Not



All tabs by Pedro Zappa
-----------------------------------------------------------------------------
-----------------------------------------------------------------------------


11. When The Sun Goes Down


Intro

(wait)

G||--------------------|--------------------|
D||-6--------------6---|--------------------|
A||--------------------|-6--------------6---|
E||--------------------|--------------------|
    i    i    i    i     i    i    i    i
G||--------------------|--------------------|
D||-6----------------6-|--------------------|
A||--------------------|-6--------------6---|
E||--------------------|--------------------|
    i    i    i    i     i    i    i    i
G||--------------------|--------------------|
D||-6------------------|--------------------|
A||--------------------|-6------------------|
E||--------------------|--------------------|
    i    i    i    i     i    i    i    i
G||--------------------|--------------------||
D||--------------------|--------------------||
A||-4---------6--------|-7---------9--------||
E||--------------------|--------------------||
    i    i    i    i     i    i    i    i

(wait)

G||--------------------|--------------------|| x3
D||--------------------|--------------------||
A||-2------------------|--------------------||
E||--------------------|-------------3---2--||
    i    i    i    i     i    i    i    i
G||--------------------|--------------------|
D||--------------------|--------------------|
A||-2-2-------2-2------|-2-2--2-2-----------|
E||--------------------|-------------3---2--|
    i    i    i    i     i    i    i    i
G||--------------------|--------------------|
D||--------------------|--------------------|
A||-2------------------|------------10\-----|
E||--------------------|--------------------|
    i    i    i    i     i    i    i    i

Verse 1

G||--------------------|--------------------||  x3
D||--------------------|-------0-----2--4---||
A||--------------------|-2--2---------------||
E||-3----3-2----2---2--|--------------------||
    i    i    i    i     i    i    i    i
G||--------------------|--------------------||
D||--------------------|-------4-----2--0---||
A||--------------------|-2--2---------------||
E||-3----3-2----2---2--|--------------------||
    i    i    i    i     i    i    i    i
G||--------------------|--------------------||  x3
D||--------------------|-------0-----2--4---||
A||--------------------|-2--2---------------||
E||-3----3-2----2---2--|--------------------||
    i    i    i    i     i    i    i    i
G||--------------------|--------------------||
D||--------------------|-------4-----2--0---||
A||--------------------|-2--2---------------||
E||-3----3-2----2---2--|--------------------||
    i    i    i    i     i    i    i    i
G||--------------------|--------------------||  x3
D||--------------------|-------0-----2--4---||
A||--------------------|-2--2---------------||
E||-3----3-2----2---2--|--------------------||
    i    i    i    i     i    i    i    i
G||--------------------|--------------------|
D||--------------------|-------4-----2--0---|
A||--------------------|-2--2---------------|
E||-3----3-2----2---2--|--------------------|
    i    i    i    i     i    i    i    i

Chorus 1

G||--------------------|--------------------||  x4
D||-2----2/---4----4---|--------------------||
A||--------------------|-2--2---2----0--2-0-||
E||--------------------|--------------------||
    i    i    i    i     i    i    i    i
G||--------------------|--------------------|
D||--------------------|--------------------|
A||-0------------------|--------------------|
E||--------------------|-2------------------|
    i    i    i    i     i    i    i    i

Verse 2

G||--------------------|--------------------||  x3
D||--------------------|-------0-----2--4---||
A||--------------------|-2--2---------------||
E||-3----3-2----2---2--|--------------------||
    i    i    i    i     i    i    i    i
G||--------------------|--------------------||
D||--------------------|-------4-----2--0---||
A||--------------------|-2--2---------------||
E||-3----3-2----2---2--|--------------------||
    i    i    i    i     i    i    i    i
G||--------------------|--------------------||  x3
D||--------------------|-------0-----2--4---||
A||--------------------|-2--2---------------||
E||-3----3-2----2---2--|--------------------||
    i    i    i    i     i    i    i    i
G||--------------------|--------------------||
D||--------------------|-------4-----2--0---||
A||--------------------|-2--2---------------||
E||-3----3-2----2---2--|--------------------||
    i    i    i    i     i    i    i    i
G||--------------------|--------------------||  x3
D||--------------------|-------0-----2--4---||
A||--------------------|-2--2---------------||
E||-3----3-2----2---2--|--------------------||
    i    i    i    i     i    i    i    i
G||--------------------|--------------------|
D||--------------------|--------------------|
A||--------------------|-2----2----2----2---|
E||-3----3-2----2---2--|--------------------|
    i    i    i    i     i    i    i    i

Chorus 2

G||--------------------|--------------------||  x8
D||-2----2/---4----4---|--------------------||
A||--------------------|-2--2---2----0--2-0-||
E||--------------------|--------------------||
    i    i    i    i     i    i    i    i
G||--------------------|--------------------|--------------------|
D||--------------------|--------------------|--------------------|
A||-0------------------|--------------------|-2------------------|
E||--------------------|-2------------------|--------------------|
    i    i    i    i     i    i    i    i     i    i    i    i


Tab by Pedro Zappa
-----------------------------------------------------------------------------
-----------------------------------------------------------------------------
comments
We did not receive enough feedback on this tab! Please rate:
print report bad tab
1 2 3 4 5
I want to post or [tab]
guest
You may want to rate the tab now too:
select rating
Please do not post tabs as comments. Select "correction" instead!