Oops, an error
Loading. Please wait.

When The Sun Goes Down Tab

version 4
version 4

Whole song

Video

18,307 views 18 this week
6 commentsread comments
1 2 3 4 5
accurate
x 5
add to favorites
launch autoscroll
font size
0
reset
how to read this tab
guitar tuner
Tab Pro tools
  • play this tab
  • loop segment
  • change instrument
  • show fretboard
  • metronome
×
Best way to learn
"When The Sun Goes Down"
Autoscroll
slow
fast
+/-
esc
set tempo
stop
Difficulty
intermediate
This is my first time tabbing. It pisses me off how no1 does any tabs right! This is how 
guitar teacher played it.

Intro
E--------------------------------------|
B-4----8---9--7--9--7--5--5-11-9-7-5-7-|
G-4----8---8--6--8--6--4--4-9--7-6-4-6-|
D-4----8---9--8--9--8--6--6-11-9-8-6-8-|
A-2----6---7--6--7--6--4--4-9--7-6-4-6-|
E--------------------------------------|
repeat once.

E-------------------------------------|
B-12----7----12----7-7-5-5-7-7-9-9-11-|
G-11----6----11----6-6-4-4-6-6-7-7-9--|
D-13----8----13----8-8-6-6-8-8-9-9-11-|
A-11----6----11----6-6-4-4-6-6-7-7-9--|
E-------------------------------------|

E--------------|
B--------------|
G-4------------|
D-4--------5-4-|
A-2--------5-4-|
E----------3-2-|
Repeat 4x

Main riff.

E----------------------|
B----------------------|
G----------------------|
D----------------0-2-4-|
A-------------2-2------|
E-3-3-2-2-2-2----------|
Repeats a lot.

verse.

E---------|
B-------3-|
G-4--3--4-|
D-5--4--4-|
A-5--4--2-|
E-3--2----|
Repeat 4x

E---------|
B-8--10-3-|
G-7--9--4-|
D-9--11-4-|
A-7--9--2-|
E---------|
repeat a few times and play a A power chord and a F# power chord.
Then play main riff. At the end play the same as intro. finish off on a G.
By martini. COPYWRITE
comments
print report bad tab
6 comments total. Showing first comments.
+1 reply
phil conry wrote on December 28 2007, 03:37 pm

copyright it all you want bro im afraid its inaccurate

+1 reply
phil conry wrote on December 28 2007, 03:38 pm

that said, try playing the chords at different parts of the neck and i suppose its not that bad

good for 3 stars
methinks

+1 reply
|Guitarhead| wrote on March 1 2009, 02:10 pm

good for 1 star I think... well almost...

I want to post or [tab]
guest
You may want to rate the tab now too:
select rating
Please do not post tabs as comments. Select "correction" instead!