Oops, an error
Loading. Please wait.

Who The Fuck Are Arctic Monkeys Chords

version 1
version 1

Whole song

Interactive

39,980 views 66 this week
1 commentread comment
1 2 3 4 5
x 28
add to favorites
launch autoscroll
font size
0
reset
transpose
0
reset
display chords
guitar tuner
Autoscroll
slow
fast
+/-
esc
set tempo
stop
Help us to improve Ultimate-Guitar.com Take our survey!
×
Author
Difficulty
intermediate
-------------------------------------------------------------------------------
                             Who The Fuck Are Arctic Monkeys - Arctic Monkeys
-------------------------------------------------------------------------------
Tabbed by: Milchbubi99
Email: milchbubi99@yahoo.de

Tuning:EADGBe

[Intro]

e|---------------------------------------------------------------------------|
B|---------------------------------------------------------------------------|
G|---------------------------------------------------------------------------|
D|---------------------------------------------------------------------------|
A|----0-2-0--2-0---0--------0-2-0--2-0---0-----------------------------------|
E|---------------2---------------------2-------------------------------------|

Bm - F#m x4

[Verse]
Bm                      F#m
We all want someone to shout for
       Bm                     F#m
Yeah, everyone wants somebody to adore
          G                          Em
But your heroes aren't what they seem
                       Bm         F#m
When you've been where we've been

Bm                       F#m
Have I done something to trigger
Bm                       F#m
The funny looks and the sniggers?
          G           Em                Bm      F#m
Are they there at all, or is it just paranoia?

[Refrain]
G           D        F#m
Everybody's got their box
G                   D     F#m
Doing what they're told
     G                    D    F#m
You pushed my faith near being lost
G
But we'll stick to the guns
                   F#
Don't care if it's marketing suicidal
F#
Won't crack or compromise
F#
Your do-rights or individes
F#
Will never unhinge us

Bm - F#m 4x

[Verse]
Bm                      F#m
And there's a couple of hundred
Bm                          F#m
Think they're Christopher Columbus
          G                   Em
But the settlers had already settled
            Bm            F#m
Yeah, long before ya

Bm                      F#m
Just cos we're having a say-so
Bm                  F#m
Not lining up to be playdoh
       G                        Em
Oh, in five years time, will it be
                       Bm          F#m
"Who the fuck's Arctic Monkeys?"

[Refrain]
G                   D        F#m
'Cause everybody's got their box
G                   D     F#m
Doing what they're told
     G                    D    F#m
You pushed my faith near being lost
G
But we'll stick to the guns
                   F#
Don't care if it's marketing suicidal
F#
Won't crack or compromise
F#
Your do-rights or individes
F#
Will never unhinge us

   Bm            F#m    Bm           F#m
e|---------------------------------------------------------------------------|
B|---------------------------------------------------------------------------|
G|---------------------------------------------------------------------------|
D|----------4--2--0-------------4--2--0--------------------------------------|
A|---2---2---------------2---2-----------------------------------------------|
E|---------------------------------------------------------------------------|
    Bm                           F#m               Bm         
    F#m
e|-----------------------------------------------------------------------------|
B|-----------------------------------------------------------------------------|
G|-----------------------------------------------------------------------------|
D|-----------------------------------------------------------------------------|
A|--0--2--0--2----0--2----0--2--0----------------0--2----2-2--5--7--9----------|
E|---------------------------------2------2--2---------------------------------|

    Bm             F#m            Bm             F#m
e|---------------------------------------------------------------------------|
B|---------------------------------------------------------------------------|
G|---------------------------------9--7--------------------------------------|
D|---7--9--7-----------------------------9--7--------------------------------|
A|------------9--7------7--9--7----------------7--7h9-7/5--------------------|
E|------------------10-------------------------------------------------------|

    Bm               F#m        Bm            F#m
e|---------------------------------------------------------------------------|
B|---------------------------------------------------------------------------|
G|---------------------------------------------------------------------------|
D|---------------------------------------------------------------------------|
A|---7--7-5--7--7-5--7-5-----------------------------------------------------|
E|--------------------------5-7-5-7--7-5-7--7-5-2----------------------------|

G#m

C#m              G#m
(La la la la la, la la)
C#m              G#m
(La la la la la, la la)
A                F#m
(La la la la la, la la)

C#m - G#m

C#m                      G#m
All the thoughts that I just said
      C#m                      G#m
Will linger round and multiply in their head
         A
Not that mad to start with
         F#m                  C#m
I'm not angry, I'm just disappointed

C - B

[Bass]
(you can play B - D - E in powerchords here)

G|----------------------------------------------------------|
D|----------------------------------------------------------|
A|2-2-2-2-2-2-2-2-2-2-2-2-2-2-5-5-5-5-5-5-5-----------------|
E|------------------------------------------1-1-1-1-1-1-1---|

[Guitar]
e|-----------------------------------------------------------------------------|
B|-----------------------------------------------------------------------------|
G|-----------------------------------------------------------------------------|
D|--9--------------------------------------------------------------------------|
A|------------------------8----------------------------------------------------|
E|----------------------------7------------------------------------------------|

It's not you it's them that are wrong
Tell 'em to take out their tongues
Tell 'em to take out their tongues...

It's not you it's them that are wrong
Tell 'em to take out their tongues
Tell 'em to take out their tongues
And bring on the backlash!

e|----------------------|
B|----------------------|
G|----------------------|
D|--9-7--------9-7------| 8x
A|------8~~--------8-5-7|
E|7----------7----------|


It's not you it's them that are wrong
Tell him to take out his tongue
Tell him to take out his tongue
It's not you it's them that's the fake
I won't mess with your escape
Is this really your escape?

e|----------------------|
B|----------------------|
G|----------------------|
D|--9-7--------9-7------| 4x
A|------8~~--------8-5-7|
E|7----------7----------|

e|----------------------|
B|----------------------|
G|----------------------|
D|----------------------| 4x
A|--5/9~~---5-7-7--5-7-5|
E|7---------------------|
 

************************************

| h  Hammer-on
| /  Slide up
| ~  Vibrato 

************************************
Suggest correction
comments
print report bad tab
1 comment total.
0 reply
tomasfernando 10 Jun 16, 2016 08:41 PM

Perfect Tab!

guest
You may want to rate the tab now too:
select rating
Wanna post a correction for this tab? Suggest correction