Oops, an error
Loading. Please wait.

Who The Fuck Are Arctic Monkeys Tab

version 1
version 1

Whole song

Interactive

43,063 views 39 this week
9 commentsread comments
1 2 3 4 5
accurate
x 15
add to favorites
launch autoscroll
font size
0
reset
how to read this tab
guitar tuner
Tab Pro tools
  • play this tab
  • loop segment
  • change instrument
  • show fretboard
  • metronome
×
Best way to learn
"Who The Fuck Are Arctic Monkeys"
Autoscroll
slow
fast
+/-
esc
set tempo
stop
Contributor
Arctic Monkeys – Who the F**k Are Arctic Monkeys?

INTRO
e|-------------|
B|-------------|
G|-------------|
D|-------------|
A|0-2-0-2-0---0|
E|----------2--|

e|777777-5-5-5|
B|777777-7-7-7|
G|777777-6-6-6| 
D|999999------| x4
A|------------|    
E|------------|    

VERSE x2
  Bm     F#m        Em                      Bm     F#m
e|777777-5-5-5|    |------------------------777777-5-5-5|
B|777777-7-7-7|    |8-8-8-8-----------------777777-7-7-7|
G|777777-6-6-6|    |9-9-9-9-11~---999/14-11-777777-6-6-6|
D|999999------| x2 |9-9-9-9-----------------999999------|
A|------------|    |------------------------------------|
E|------------|    |------------------------------------|

CHORUS
e|----------------|    |-----------------------|
B|----------------|    |-----------------------|
G|----------------|    |11-11-11-11-11-11-11-11|
D|9~~9/11-7~~~----| x3 |11-11-11-11-11-11-11-11|
A|------------7~~~|    |9--9--9--9--9--9--9--9-|
E|----------------|    |-----------------------|

VERSE x2

CHORUS

La la la la la, la la 
e|9--9--9--9--9--9---7--7--7|
B|9--9--9--9--9--9---9--9--9|
G|9--9--9--9--9--9---8--8--8|
D|11-11-11-11-11-11---------|
A|--------------------------|
E|--------------------------|

VERSE 2
e|9--9--9--9--9--9---7--7--7|    |--------------------|
B|9--9--9--9--9--9---9--9--9|    |10-10-10-10-------10|
G|9--9--9--9--9--9---8--8--8|    |11-11-11-11---/14-11|
D|11-11-11-11-11-11---------| x2 |11-11-11-11-------9-|
A|--------------------------|    |--------------------|
E|--------------------------|    |--------------------|

ENDING
e|----------------------|
B|----------------------|
G|----------------------|
D|--9-7--------9-7------|
A|------8~~--------8-5-7|
E|7----------7----------|
comments
print report bad tab
9 comments total. Showing first comments.
0 reply
sam allen rules wrote on July 4 2006, 01:19 pm

just some bits missing. but otherwise good.

0 reply
jason_smiths wrote on July 6 2006, 01:20 pm

finally been tabbed!!i was gonna do it, i play it the same way, great tab matey.

0 reply
davo_333 wrote on August 19 2006, 09:53 pm

where can i get this song off the internet?

I want to post or [tab]
guest
You may want to rate the tab now too:
select rating
Please do not post tabs as comments. Select "correction" instead!