Oops, an error
Loading. Please wait.

Who The Fuck Are Arctic Monkeys Bass Tab

version 2
version 2

Whole song

Interactive

11,925 views 30 this week
1 commentread comment
1 2 3 4 5
excellent!
x 15
add to favorites
launch autoscroll
font size
0
reset
guitar tuner
Tab Pro tools
  • play this tab
  • loop segment
  • change instrument
  • show fretboard
  • metronome
×
Best way to learn
"Who The Fuck Are Arctic Monkeys"
Autoscroll
slow
fast
+/-
esc
set tempo
stop
Contributor
ARCTIC MONKEYS - WHO THE FUCK ARE ARCTIC MONKEYS?
               (Tabbed by w7w7w7)



Intro
G|-----------------------------------------------------------------------|
D|-----------------------------------------------------------------------|
A|-0-2-----0-2-----7-9-----7-9-7-9---------------------------------------| x4
E|-----------------------------------------------------------------------|



Verse
G|-----------------------------------------------------------------------|
D|-----------------------------------------------------------------------|
A|-0-2-----0-2-----7-9-----7-9-----0-2-----0-2-----7-9-----7-9-7-9-------|
E|-----------------------------------------------------------------------|

G|-----------------------------------------------------------------------|
D|---5-----5-5-----------------------------------------------------------|
A|-7---------------7-------7-7-----0-2-----0-2-----7-9-----7-9-7-9-------|
E|-----------------------------------------------------------------------|

G|-----------------------------------------------------------------------|
D|-----------------------------------------------------------------------|
A|-0-2-----0-2-----7-9-----7-9-7-9-0-2-----0-2-----7-9-----7-9-9---------|
E|-----------------------------------------------------------------------|

G|-----------------------------------------------------------------------|
D|---5-----5-5-----------------------------------------------------------|
A|-----------------7-------7-7-----0-2-----0-2-----7-9-----7-9-7-9-----7-|
E|-----------------------------------------------------------------------|



Bridge
G|------------------|     |----------|     |---------|     |----------|
D|-55555555----4444-|     |-55555555-|     |-4-44444-|     |-44444444-|
A|---------5555-----| x3  |----------| x1  |---------| x3  |----------| x1
E|------------------|     |----------|     |---------|     |----------|


Intro
Verse
Bridge



Bridge #2
G|-----------------------------------------------------------------------|
D|-----------------------------------------------------------------------|
A|-0-2-----0-2-----7-9-----7-9/----0-2-----0-2-----7-9-----7-9-7-9-------| x3
E|-----------------------------------------------------------------------|

G|-----------------------------------------------------------------------|
D|-----------------------------------------------------------------------|
A|-0-2-----0-2-----7-9-----7-9/----0-2-----0-2-----7-9-------------------|
E|-----------------------------------------------------------------------|



Verse #2
G|-----------------------------------------------------------------------|
D|-----------------------------------------------------------------------|
A|----------------9-11---9-11-9-11----------------9-11---9-11-11---------|
E|-7-9-----7-9---------------------7-9-----7-9---------------------------|

G|-----------------------------------------------------------------------|
D|---7-----7-7-----------------------------------------------------------|
A|-----------------9-------9-9--------------------9-11---9-11-9-11-------|
E|---------------------------------7-9-----7-9---------------------------|

G|-----------------------------------------------------------------------|
D|-----------------------------------------------------------------------|
A|-----------------------11/----------------------9-11---9-11-9-11-9-----|
E|-7-9-----------------------------7-9-----7-9---------------------------|

G|-----------------------------------------------------------------------|
D|---7-----7-7-----------------------------------------------------------|
A|-----------------9-------9-9-------------------------------------------|
E|---------------------------------7-9-9---------------------------------|



End
G|-----------------------------------------------------------------------|
D|-----------------------------------------------------------------------|
A|-2-2-2-2-2-2-2-2-2-2-2-2-2-2-2-2-2-2-2-2-2-2-2-2-2-2-2-2-2-2-2-2-------| x2
E|-----------------------------------------------------------------------|

G|-----------------------------------------------------------------------|
D|-----------------------------------------------------------------------|
A|-2-2-0-2-2-2-0-2-2-2-0-2-2-2-0-4-5-5-5-5-5-5-5-------------------------| x10
E|-----------------------------------------------5-1-1-1-1-1-1-1-1-------|

G|-----------------------------------------------------------------------|
D|-----------------------------------------------------------------------|
A|-2-2-2-2-2-2-2-2-2-2-2-2-2-2-2-2-5-5-5-5-5-5-5-5-----------------------|
E|-------------------------------------------------1-1-1-1-1-1-1-1-------|

G|-----------------------------------------------------------------------|
D|-----------------------------------------------------------------------|
A|-2-2-2-2-2-2-2-2-2-2-2-2-2-2-2-2-5-5-5-5-5-5-5-5-8-8-8-8-8-8-8-8-------|
E|-----------------------------------------------------------------------|

...Drums...

G|---------------------------------------------------------4-2-----------|
D|-------------4----------------4----------------3--3--3-------4---------|
A|-2--2--2---5------2--2--2---5------5--5--5---5-------------------------| x4
E|-----------------------------------------------------------------------|
comments
print report bad tab
1 comment total.
0 reply
Pyradonis wrote on June 7 2009, 08:35 am

Thank you!
5 Stars - Great!

I want to post or [tab]
guest
You may want to rate the tab now too:
select rating
Please do not post tabs as comments. Select "correction" instead!