Oops, an error
Loading. Please wait.

Who The Fuck Are Arctic Monkeys Bass Tab

version 3
version 3

Whole song

Interactive

1,956 views 1 this week
1 commentread comment
1 2 3 4 5
please rate
add to favorites
launch autoscroll
font size
0
reset
guitar tuner
Tab Pro tools
  • play this tab
  • loop segment
  • change instrument
  • show fretboard
  • metronome
×
Best way to learn
"Who The Fuck Are Arctic Monkeys"
Autoscroll
slow
fast
+/-
esc
set tempo
stop
Difficulty
intermediate
Song: Who The Fuck Are Arctic Monkeys?
Artist: Arctic Monkeys
Album: Who The Fuck Are Arctic Monkeys?

Standard Tuning

Intro
G|-----------------------------|
D|-----------------------------|
A|--------------7--9--7-9-7-9--|
E|--5--7--5--7-----------------|x4

Verse 1
G|-----------------------------------------------------|
D|-----------------------------------------------------|
A|--------------7--9--7--9--------------7--9--7-9-7-9--|
E|--5--7--5--7--------------5--7--5--7-----------------|

G|------------------------------------------------|
D|------------------------------------------------|
A|--10--10-10--7--7-7--------------7--9--7-9-7-9--|
E|---------------------5--7--5--7-----------------|

Verse 2
G|-----------------------------------------------------|
D|-----------------------------------------------------|
A|--------------7--9--7--9--------------7--9--7-9-7-9--|
E|--5--7--5--7--------------5--7--5--7-----------------|

G|--------------------------------------------------|
D|--------------------------------------------------|
A|--10--10-10--7--7-7--------------7--9--7-9-7-9-7--|
E|---------------------5--7--5--7-------------------|

Part 2
G|-------------------------------------------|
D|-------------------------------------------|
A|--10-10-10-10-10-10-10-10-5-5-5-5-9-9-9-9--|
E|-------------------------------------------|x3

G|-------------------------------------------------------|
D|-------------------------------------------------------|
A|--10-10-10-10-10-10-10-10--9--9-9-9-9-9--9--9-9-9-9-9--|
E|-------------------------------------------------------|

G|------------------------------|
D|------------------------------|
A|--9--9-9-9-9-9--9--9-9-9-9-9--|
E|------------------------------|

Instrumental
G|-----------------------------|
D|-----------------------------|
A|--------------7--9--7-9-7-9--|
E|--5--7--5--7-----------------|x4

Verse 3
G|-----------------------------------------------------|
D|-----------------------------------------------------|
A|--------------7--9--7--9--------------7--9--7-9-7-9--|
E|--5--7--5--7--------------5--7--5--7-----------------|

G|------------------------------------------------|
D|------------------------------------------------|
A|--10--10-10--7--7-7--------------7--9--7-9-7-9--|
E|---------------------5--7--5--7-----------------|

Verse 4
G|-----------------------------------------------------|
D|-----------------------------------------------------|
A|--------------7--9--7--9--------------7--9--7-9-7-9--|
E|--5--7--5--7--------------5--7--5--7-----------------|

G|--------------------------------------------------|
D|--------------------------------------------------|
A|--10--10-10--7--7-7--------------7--9--7-9-7-9-7--|
E|---------------------5--7--5--7-------------------|

Part 2
G|-------------------------------------------|
D|-------------------------------------------|
A|--10-10-10-10-10-10-10-10-5-5-5-5-9-9-9-9--|
E|-------------------------------------------|x3

G|-------------------------------------------------------|
D|-------------------------------------------------------|
A|--10-10-10-10-10-10-10-10--9--9-9-9-9-9--9--9-9-9-9-9--|
E|-------------------------------------------------------|

Instrumental
G|-----------------------------------------------------|
D|-----------------------------------------------------|
A|--------------7--9--7--9--------------7--9--7-9-7-9--|
E|--5--7--5--7--------------5--7--5--7-----------------|x3

G|--------------------------------------------|
D|--------------------------------------------|
A|--------------7--9--7--9--------------7--9--|
E|--5--7--5--7--------------5--7--5--7--------|

Verse 5
G|----------------------------------------------------------|
D|----------------------------------------------------------|
A|--------------9--11--9--11--------------9--11--9-11-9-11--|
E|--7--9--7--9----------------7--9--7--9--------------------|

G|---------------------------------------------------|
D|---------------------------------------------------|
A|--12--12-12--9--9-9--------------9--11--9-11-9-11--|
E|---------------------7--9--7--9--------------------|

Verse 6
G|-------------------------------------------------------------|
D|-------------------------------------------------------------|
A|-----------------------------------------9--11--9-11-9-11-9--|
E|--7--9-----------11-11--11\--7--9--7--9----------------------|

G|---------------------------|
D|---------------------------|
A|--12--12-12--9--9-9--------|
E|---------------------7--9--|

Instrumental
G|-----------------------------------|
D|-----------------------------------|
A|--2-2-2-2-2-2-2-2-2-2-2-2-2-2-2-2--|
E|-----------------------------------|x4

Part 3
G|-------------------------------------------------------------------|
D|-------------------------------------------------------------------|
A|--2-2-0-2-2-2-0-2-2-2-0-2-2-2-0-4-5-5-5-5-5-5-5--------------------|
E|------------------------------------------------5-1-1-1-1-1-1-1-1--|x4

Instrumental
G|-------------------------------------------------------------------|
D|-------------------------------------------------------------------|
A|--2-2-0-2-2-2-0-2-2-2-0-2-2-2-0-4-5-5-5-5-5-5-5--------------------|
E|------------------------------------------------5-1-1-1-1-1-1-1-1--|x4

Part 4
G|-------------------------------------------------------------------|
D|-------------------------------------------------------------------|
A|--2-2-0-2-2-2-0-2-2-2-0-2-2-2-0-4-5-5-5-5-5-5-5--------------------|
E|------------------------------------------------5-1-1-1-1-1-1-1-1--|x2

G|-------------------------------------------------------------------|
D|-------------------------------------------------------------------|
A|--2-2-2-2-2-2-2-2-2-2-2-2-2-2-2-2-5-5-5-5-5-5-5-5------------------|
E|--------------------------------------------------1-1-1-1-1-1-1-1--|

G|-------------------------------------------------------------------|
D|-------------------------------------------------------------------|
A|--2-2-2-2-2-2-2-2-2-2-2-2-2-2-2-2-5-5-5-5-5-5-5-5-8-8-8-8-8-8-8-8--|
E|-------------------------------------------------------------------|

Drum Solo
(Nothing played)

Instrumental
G|------------------------------------------4-2----|
D|---------0-4---------0-4-----------3-3-3------4--|
A|--2-2-2-------2-2-2-------5-5-5------------------|
E|-------------------------------------------------|x2

Outro
G|------------------------------------------4-2----|
D|---------0-4---------0-4-----------3-3-3------4--|
A|--2-2-2-------2-2-2-------5-5-5------------------|
E|-------------------------------------------------|

G|------------------------------------------4-2----|
D|---------0-4---------0-4-----------3-3-3------3--|
A|--2-2-2-------2-2-2-------5-5-5------------------|
E|-------------------------------------------------|
comments
We did not receive enough feedback on this tab! Please rate:
print report bad tab
1 2 3 4 5
1 comment total.
0 reply
PsychoGAA wrote on January 14 2011, 02:38 pm

same f*ck as the ver2

I want to post or [tab]
guest
You may want to rate the tab now too:
select rating
Please do not post tabs as comments. Select "correction" instead!