Oops, an error
Loading. Please wait.
We have Chord Pro version of Whyd You Only Call Me When Youre High.
It's the closest thing you can get to the original song and it has interactive parts. Check out the tab »
×
63,991 views 78 this week
9 commentsread comments
1 2 3 4 5
x 19
add to favorites
×
Save as Personal and add changes to this tab that will be seen only by you. Learn more ›
×
You can save this tab as Personal to edit and correct it or add notes. All changes will be seen only by you. Learn more »
launch autoscroll
font size
0
reset
guitar tuner
backing track
0:00
0:00
edit
Autoscroll
slow
fast
+/-
esc
set tempo
stop
Author
Difficulty
intermediate
Artist: The Arctic Monkeys
Song:Why'd You Only Call Me When You're High?

Tabbed by: Alex Kehoe
Please visit www.alexkehoe.co.uk if you like these tabs and want more of the same.


[Intro]

G|-----------------------|
D|-----------------------|
A|----4-5-5\---2---4-2---|
E|2---------------------0|

G|---------------------|
D|---------------------|
A|----4-5-5--2----4-2--|
E|2-------------------0|


[Verse 1]

G|---------------------|
D|---------------------|
A|----4-5-5--2----4-2--|
E|2-------------------0|(x4)


[Chorus]

G|---------------------|
D|---------------------|
A|----4-5-5--2----4-2--|
E|2-------------------0|(x2)

G|--------------------|
D|--------------------|
A|----4-5----2---4-2--|
E|2------------------0|

G|---------------------|
D|---------------------|
A|----4-5-5--2----4-2--|
E|2-------------------0|


[Verse 2]

G|---------------------|
D|---------------------|
A|----4-5-5--2----4-2--|
E|2-------------------0|(x2)

G|----------------------|
D|---4-2----------------|
A|-------5--5--2---4-2--|
E|2--------------------0|

G|---------------------|
D|---------------------|
A|----4-5-5--2----4-2--|
E|2-------------------0|


[Chorus]

G|----------------------|
D|---4-2----------------|
A|-------5--5--2---4-2--|
E|2--------------------0|

G|---------------------|
D|---------------------|
A|----4-5-5--2----4-2--|
E|2-------------------0|

G|----------------------|
D|---4-2----------------|
A|-------5--5--2---4-2--|
E|2--------------------0|

G|----------------------|
D|----------------------|
A|----4-5-5--2----4-2--2|
E|2---------------------| 


[Bridge]

G|--------------------------------|
D|--------------2-----------------|
A|2-2-2-4-5-5-5-------------0-2-4-|
E|----------------2-2-2-0-2-------|(x3)

G|----------------------|
D|--------------2-------|
A|2-2-2-4-5-5-5---4----4|
E|----------------------|


[Outro]

G|----------------|
D|----------2-----------|
A|5-5-5-4-5---5-4-----------0-2-4|
E|----------------2-2-2-0-2------|(x7) 

G|----------------|
D|----------2-----|
A|5-5-5-4-5---5-4-|
E|----------------|

************************************

| \  Slide down

************************************

Tabbed by: Alex Kehoe
www.alexkehoe.co.uk

            
            
Suggest correction
Creating personal tab
Creating personal tab
You can edit any tab online and save it as your Personal.

You can edit, replace or remove any tab part or add personal notes – all changes will be seen only by you.

Personal tabs can be accessed anytime from any device, even offline.
Learn more »
comments
print report bad tab
9 comments total. Showing first comments.
0 reply
jmey97 10 Sep 07, 2013 10:22 PM, edited on January 21 2014, 02:41 am

The main riff is off

0 reply
jmey97 10 Sep 07, 2013 10:32 PM

G|-----------------------------------
D|--------4---2----------------------
A|----------------5--5--2--2--4--2--0-
E|--2--------------------------------
Actually during the second verse the riff varies a bit once or twice

-1 reply
jmey97 10 Sep 07, 2013 11:00 PM, edited on January 21 2014, 02:42 am

.

guest
You may want to rate the tab now too:
select rating
Wanna post a correction for this tab? Suggest correction