Oops, an error
Loading. Please wait.
We have Chord Pro version of Whyd You Only Call Me When Youre High.
It's the closest thing you can get to the original song and it has interactive parts. Check out the tab »
×
10,547 views 6 this week
2 commentsread comments
1 2 3 4 5
x 6
add to favorites
×
Save as Personal and add changes to this tab that will be seen only by you. Learn more ›
×
You can save this tab as Personal to edit and correct it or add notes. All changes will be seen only by you. Learn more »
launch autoscroll
font size
0
reset
guitar tuner
backing track
0:00
0:00
edit
Autoscroll
slow
fast
+/-
esc
set tempo
stop
Tabbed by: ACertainCitizen
E-mail:

Tuning:Standard

Intro and verse x6

G|---------------------------------------------------------------------------|
D|---------------------------------------------------------------------------|
A|---------4--5--5---2--4--2--0----------------------------------------------|
E|--2------------------------------------------------------------------------|

Chorus x4

G|---------------------------------------------------------------------------|
D|---------------------------------------------------------------------------|
A|--------4--5--5---2--4--2--0-----------------------------------------------|
E|--2------------------------------------------------------------------------|

On the 3x time,don't take the second 5 on the A string when Alex sings ''High''

Verse 2 Part 1 x2

G|---------------------------------------------------------------------------|
D|---------------------------------------------------------------------------|
A|--------4--5--5---2--4--2--0-----------------------------------------------|
E|--2------------------------------------------------------------------------|

Verse 2 Part 2 x2

G|---------------------------------------------------------------------------|
D|--------4---2--------------------------------------------------------------|
A|----------------5--5--2--4--2--0-------------------------------------------|
E|--2------------------------------------------------------------------------|

Chorus 2 x2
G|---------------------------------------------------------------------------|
D|--------4---2--------------------------------------------------------------|
A|----------------5--5--2--4--2--0-----------4--5--5--2--4--2--0-------------|
E|--2----------------------------------2-------------------------------------|

Bridge x3

G|---------------------------------------------------------------------------|
D|---------------------------------------------------------------------------|
A|--2-2-2-4-5-5-5-7---------------0-2-4--------------------------------------|
E|--------------------2-2-2-0-2----------------------------------------------|

Ending bridge x1

G|---------------------------------------------------------------------------|
D|---------------------------------------------------------------------------|
A|--2-2-2-4-5-5-5-7--4----4--------------------------------------------------|
E|---------------------------------------------------------------------------|

Ending x8
G|---------------------------------------------------------------------------|
D|---------------------------------------------------------------------------|
A|-----5-5-5-4-5-7-5-4-------------0-2-4-------------------------------------|
E|----------------------2-2-2-0-2--------------------------------------------|

Last time only play first the first tones, end on 4.


| /  slide up
| \  slide down
| h  hammer-on
| p  pull-off
| ~  vibrato
| +  harmonic
| x  Mute note
===============================================================================

            
            
Suggest correction
Creating personal tab
Creating personal tab
You can edit any tab online and save it as your Personal.

You can edit, replace or remove any tab part or add personal notes – all changes will be seen only by you.

Personal tabs can be accessed anytime from any device, even offline.
Learn more »
comments
print report bad tab
2 comments total.
+1 reply
RHammers96 62 Oct 25, 2013 01:07 PM

Really good, just one small correction to the verse

G|-------------------------------------------------------------------
D|-------------------------------------------------------------------
A|---------4--5--5---2--4--2--0--------------------------------------
E|--2-----------------------------2---0-----(repeat)------------------

0 reply
powert87 10 Feb 27, 2014 03:35 PM

In the bridge and the endings, change that 7 on the A to a 2 on the D and it's much easier.

guest
You may want to rate the tab now too:
select rating
Wanna post a correction for this tab? Suggest correction