Oops, an error
Loading. Please wait.

You And I Bass Tab

3,919 views 24 this week
no commentswrite comment
1 2 3 4 5
excellent!
x 3
add to favorites
launch autoscroll
font size
0
reset
guitar tuner
Tab Pro tools
  • play this tab
  • loop segment
  • change instrument
  • show fretboard
  • metronome
Autoscroll
slow
fast
+/-
esc
set tempo
stop
Contributor
Difficulty
advanced
Artist: Arctic Monkeys

Album: Black Treacle



All tabs by Pedro Zappa
-----------------------------------------------------------------------------
-----------------------------------------------------------------------------


2. You and I


Verse

(wait)

G||--------------------||
D||--------------------||
A||--------------------||
E||----------------3---||
    i    i    i    i  
G||--------------------|--------------------||  x8
D||--------------------|--------------------||
A||--------------------|--------------------||
E||-0-0----0--3----3---|-0-0----0--3----3---||
    i    i    i    i     i    i    i    i

Chorus 1

G||--------------------|--------------------||  x2
D||----------------5-7-|--------------------||
A||-------------7------|--------------------||
E||-5-5--5-5--5--------|-5-5--5-6--6-6--6-6-||
    i    i    i    i     i    i    i    i

G||--------------------|--------------------||  x2
D||--------------------|--------------------||
A||--------------------|--------------------||
E||-0-0----0--3----3---|-0-0----0--3----3---||
    i    i    i    i     i    i    i    i

Verse 2

G||--------------------|--------------------|
D||--------------------|--------------------|
A||--------7-----------|--------7-----------|
E||-0---------6----3---|-0---------6----3---|
    i    i    i    i     i    i    i    i
G||--------------------|--------------------||
D||--------------------|--------------------||
A||--------7-----------|--------7-----------||
E||-0---------6----3---|---0-------6----3---||
    i    i    i    i     i    i    i    i

G||--------------------|--------------------|
D||--------------------|--------------------|
A||--------7-----------|--------7-----------|
E||-0---------6----3---|-0---------6----3---|
    i    i    i    i     i    i    i    i
G||--------------------|--------------------||
D||--------------------|--------------------||
A||--------7-----------|--------7-----------||
E||-0---------6----3---|---0-------6-5--3---||
    i    i    i    i     i    i    i    i

Solo

G||--------------------|--------------------||  x3
D||--------------------|--------------------||
A||--------------------|--------------------||
E||-0-0----0--3----3---|-0-0----0--3----3---||
    i    i    i    i     i    i    i    i
G||--------------------|--------------------||
D||--------------------|--------------------||
A||--------------------|--------------------||
E||-0-0----0--3----3---|-0-0----0--3--------||
    i    i    i    i     i    i    i    i

Chorus 2

G||--------------------|--------------------||  x2
D||----------------5-7-|--------------------||
A||-------------7------|--------------------||
E||-5-5--5-5--5--------|-5-5--5-6--6-6--6-6-||
    i    i    i    i     i    i    i    i
G||--------------------|--------------------||  
D||--------------------|--------------------||
A||--------------------|--------------------||
E||-0-0----0--3----3---|-0-0----0--3----3---||
    i    i    i    i     i    i    i    i
G||--------------------|--------------------|| 
D||--------------------|--------------------||
A||--------------------|--------------------||
E||-0-0----0--3----3---|-0-0----0--3--------||
    i    i    i    i     i    i    i    i

G||--------------------|--------------------||  x2
D||----------------5-7-|--------------------||
A||-------------7------|--------------------||
E||-5-5--5-5--5--------|-5-5--5-6--6-6--6-6-||
    i    i    i    i     i    i    i    i
G||--------------------|--------------------|
D||--------------------|--------------------|
A||-7------------------|--------------------|
E||--------------------|--------------------|
    i    i    i    i     i    i    i    i

(Wait)

Bridge

G||--------------------|--------------------|
D||--------------------|--------5---x5------|
A||-7-77-5-------------|-7-77-5-------------|
E||-------73---x3--5-7-|-------7--------5-7-|
    i    i    i    i     i    i    i    i
G||--------------------|--------------------||
D||--------------------|--------5----5----7-||
A||-7-77-5-------------|-7-77-5-------------||
E||-------73---x3--5-7-|-------7---33---5---||
    i    i    i    i     i    i    i    i
G||--------------------|--------------------|
D||--------------------|--------5---x5------|
A||-7-77-5-------------|-7-77-5-------------|
E||-------73---x3--5-7-|-------7--------5-7-|
    i    i    i    i     i    i    i    i
G||--------------------|--------------------||
D||--------------------|-------------5------||
A||-7-77-5-------------|-7-77-5-------------||
E||-------73---x3--5-7-|-------73--33---5-3-||
    i    i    i    i     i    i    i    i

G||--------------------|--------------------|
D||--------------------|--------------------|
A||-7-77-5-------------|-7-77-5-------------|
E||-------73---x3--5-7-|-------73---x3--5-7-|
    i    i    i    i     i    i    i    i
G||--------------------|--------------------||
D||--------------------|-------------5----7-||
A||-7-77-5-------------|-7-77-5-------------||
E||-------73---x3--5-7-|-------73--33---5---||
    i    i    i    i     i    i    i    i
G||--------------------|--------------------|
D||--------------------|--------------------|
A||-7-77-5-------------|-7-77-5-------------|
E||-------73---x3--5-7-|-------73---x3--5-7-|
    i    i    i    i     i    i    i    i
G||--------------------|--------------------||
D||--------------------|--------------------||
A||-7-77-5-------------|-7-77-5-------------||
E||-------73---x3--5-7-|-------73--333--5-5-||
    i    i    i    i     i    i    i    i

Chorus 3

G||--------------------|--------------------|
D||--------------------|--------------------|
A||-3--3--3---3----3---|--------------------|
E||---3----3----3----3-|-5-05--50--5-3--3-3-|
    i    i    i    i     i    i    i    i
G||--------------------|--------------------||
D||--------------------|--------------------||
A||---77-5-------------|---77-5---------0-2-||
E||-0-----73---x3--5-7-|-0-----73---x3------||
    i    i    i    i     i    i    i    i
G||--------------------|--------------------|
D||--------------------|--------------------|
A||-3--3--3---3----3---|--------------------|
E||---3----3----3----3-|-5-05--50--5-3--3-3-|
    i    i    i    i     i    i    i    i
G||--------------------|--------------------||
D||--------------------|------------x5--7-9-||
A||---77-5-------------|---77-5-------------||
E||-0-----73---x3--5-7-|-0-----73-----------||
    i    i    i    i     i    i    i    i
G||--------------------------|--------------------|
D||-10---10--10---10---------|-7--7--7---7-5--4-5-|
A||----10------10----10---10-|---7----7-----------|
E||---------------------8----|--------------------|
    i       i     i     i       i    i    i    i
G||--------------------|--------------------||
D||--------------------|--------------------||
A||---77-5-------------|---77-5---------0-2-||
E||-0-----73---x3--5-7-|-0-----73---x3------||
    i    i    i    i     i    i    i    i

G||--------------------|--------------------|--------------------|
D||--------------------|--------------------|--------------------|
A||-3--3--3---3----3---|--------------------|--------------------|
E||---3----3----3----3-|-5-05--50--5-3--3---|-0------------------|
    i    i    i    i     i    i    i    i     i    i    i    i

Verse 3

G||--------------------|--------------------||  x3
D||--------------------|--------------------||
A||--------------------|--------------------||
E||-0-0----0--3----3---|-0-0----0--3----3---||
    i    i    i    i     i    i    i    i
G||--------------------||
D||--------------------||
A||--------------------||
E||-0-0----0--3----3---||
    i    i    i    i  
G||--------------------|--------------------||
D||--------------------|--------------------||
A||---77-5-------------|--------------------||
E||-0-----73---x3--5-7-|-0------------------||
    i    i    i    i     i    i    i    i


Tab by Pedro Zappa
-----------------------------------------------------------------------------
-----------------------------------------------------------------------------
comments
We did not receive enough feedback on this tab! Please rate:
print report bad tab
1 2 3 4 5
I want to post or [tab]
guest
You may want to rate the tab now too:
select rating
Please do not post tabs as comments. Select "correction" instead!