Oops, an error
Loading. Please wait.

You And I Tab

8,217 views 12 this week
2 commentsread comments
1 2 3 4 5
x 6
add to favorites
launch autoscroll
font size
0
reset
how to read this tab
guitar tuner
Autoscroll
slow
fast
+/-
esc
set tempo
stop
Help us to improve Ultimate-Guitar.com Take our survey!
×
Difficulty
intermediate
Seen this wasn't up, so tried my best and tabbed it out, my first tab so might not be accurate.

Main riff/intro:
|-------------|
|-------------|
|-------------|
|--3-3---3-6-6|
|--3-3---3-6-6|
|--1-1---1-4-4| (x20)

Chorus:
|-------------|
|-------------|
|-------------|
|-7------9----|
|-7(x12)-9(x4)|
|-5------7----| (x2)

Solo:
|-----------------------------------------------------------------------|
|----------14b14b14-12/9-11-14-12-9-7----------------9/12-14------------|
|-13/16-16----------------------------7-9--7-9-7-9-7---------12/9-7-5/3-|
|-----------------------------------------------------------------------|
|-----------------------------------------------------------------------|
|-----------------------------------------------------------------------|

-------------------------|
-/5-/7-/9-/12-/9-/12-/14-|
-------------------------|
-------------------------|
-------------------------|
-------------------------|
Suggest correction
comments
print report bad tab
2 comments total.
+1 reply
QotsaFreak7 37 Mar 07, 2013 09:09 PM

I'm pretty sure it's.

Main riff/intro:
|-------------|
|-------------|
|-------------|
|--2-2---2-5-5|
|--2-2---2-5-5|
|--0-0---0-3-3| (x20)

+1 reply
willian_melo.a7 10 Jan 19, 2015 04:55 PM

Actually, Turner does like this:

|-------------|
|-------------|
|-------------|
|-------------|
|-------------|
|--0-0---0-3-3| (x20)

guest
You may want to rate the tab now too:
select rating
Wanna post a correction for this tab? Suggest correction