Oops, an error
Loading. Please wait.

You Know Im No Good Bass Tab

version 1
version 1

Whole song

5,020 views 1 this week
no commentswrite comment
1 2 3 4 5
please rate
add to favorites
launch autoscroll
font size
0
reset
guitar tuner
Tab Pro tools
  • play this tab
  • loop segment
  • change instrument
  • show fretboard
  • metronome
×
Best way to learn
"You Know Im No Good"
Autoscroll
slow
fast
+/-
esc
set tempo
stop
Contributor
G|---------------|
D|---------------|
A|6---6-----5-7--|x4
E|------5-8------|

G|------------------------------------------------------------|
D|---------------3---3---0-2-4--6---6-----5-7-----------------|
A|6---6-----5-7--------2--------------5-8------6---6-----5-7--|x2
E|------5-8------------------------------------------5-8------|

G|----------------------------------------------------------|
D|----------------------------------7--7--7--7--7--7--7--7--|
A|----7-5--------------7-5---------7--7--7--7--7--7--7--7---|
E|5-7-----5-7-5-7--5-7-----5-7-5-7--------------------------|

G|------------------------------------------------------|
D|-7--7--7--7--7--7--7--7---5--5--5--5---------------5--|
A|7--7--7--7--7--7--7--7---5--5--5--5---5--5--5--5-57---|
E|------------------------------------------------------|

G|------------------------------|
D|---------------6---6-----5-7--|
A|6---6-----5-7--------5-8------|x4
E|------5-8---------------------|

Pause for guitar filler

G|--------------------------------------------------------------------|
D|---------------3---3---0-2-4--6---6-----5-7-------------------------|
A|6---6-----5-7--------2--------------5-8------6-6/18-18-18-20-19-17--|
E|------5-8-----------------------------------------------------------|

G|------------------------------------------------------------|
D|---------------3---3---0-2-4--6---6-----5-7-----------------|
A|6---6-----5-7--------2--------------5-8------6---6-----5-7--|
E|------5-8------------------------------------------5-8------|

G|----------------------------------------------------------|
D|----------------------------------7--7--7--7--7--7--7--7--|
A|----7-5--------------7-5---------7--7--7--7--7--7--7--7---|
E|5-7-----5-7-5-7--5-7-----5-7-5-7--------------------------|

G|--------------------------------------------------------|
D|-7--7--7--7--7--7--7--7---5--5--5--5--------------------|
A|7--7--7--7--7--7--7--7---5--5--5--5---/5b/12b/17b/20b\--|
E|--------------------------------------------------------|

G|------------------------------|
D|---------------6---6-----5-7--|
A|6---6-----5-7--------5-8------|x4
E|------5-8---------------------|

Pause for guitar filler 2

G|------------------------------|
D|---------------6---6-----5-7--|
A|6---6-----5-7--------5-8------|x2
E|------5-8---------------------|

Pause for the 'sweet re-union...' bit
G|---------------------|
D|---------------------|
A|6--6/18-18-18201918--|
E|---------------------|

G|------------------------------------------------------------|
D|---------------3---3---0-2-4--6---6-----5-7-----------------|
A|6---6-----5-7--------2--------------5-8------6---6-----5-7--|
E|------5-8------------------------------------------5-8------|

G|----------------------------------------------------------|
D|----------------------------------7--7--7--7--7--7--7--7--|
A|----7-5--------------7-5---------7--7--7--7--7--7--7--7---|
E|5-7-----5-7-5-7--5-7-----5-7-5-7--------------------------|

G|--------------------------------------------------------|
D|-7--7--7--7--7--7--7--7---5--5--5--5--------------------|
A|7--7--7--7--7--7--7--7---5--5--5--5---/5b/12b/17b/20b\--|
E|--------------------------------------------------------|

G|------------------------------|
D|---------------6---6-----5-7--|
A|6---6-----5-7--------5-8------|x5
E|------5-8---------------------|

G|-----------------------------|
D|---------------6---6-876876--|
A|6---6-----5-7----------------|
E|------5-8--------------------|

G|------------------------------|
D|---------------6---6-----5-7--|
A|6---6-----5-7--------5-8------|x5
E|------5-8---------------------|

G|--------------------|
D|--------------------|
A|6---6-7-5-----------|
E|----------8-5-3~~~--|
comments
We did not receive enough feedback on this tab! Please rate:
print report bad tab
1 2 3 4 5
I want to post or [tab]
guest
You may want to rate the tab now too:
select rating
Please do not post tabs as comments. Select "correction" instead!