Oops, an error
Loading. Please wait.

You Know Im No Good Bass Tab

version 2
version 2

Whole song

5,064 views 9 this week
no commentswrite comment
1 2 3 4 5
1 last vote to show rating
add to favorites
launch autoscroll
font size
0
reset
guitar tuner
Autoscroll
slow
fast
+/-
esc
set tempo
stop
Help us to improve Ultimate-Guitar.com Take our survey!
×
Author
Difficulty
advanced
INTRO (0:08)
---------------|
---------------|
---------------| x 4
--8~-8-33-6-7--|


VERSE (0:16)
--------------------------------------------------------|
--------------------------------------------------------|
---------------8~-8-33-6-7--10~-10-55-8-9---------------| x 2
--8~-8-33-6-7------------------------------8~-8-33-6-7--|


PRE-CHORUS (0:33)
----------------------------------------|
----------------------------------------|
----------------------------------------|
--1-3-4--1-3-4--1-4--1-3-4--1-3-4--1-4--|

--7-7-7-7-7-7-7-7--8-8-8-8-8-8-8-8-8--7-7-7-7----------|
-------------------------------------------------------|
---5-5-5-5-5-5-5-5--6-6-6-6-6-6-6-6-6--5-5-5-5---------|
-----------------------------------------------3-3-3-3-|

CHORUS (0:49)
-------------------------------------------------------------|
-------------------------------------------------------------|
----------------10~-10-55-8-9---5~-5-00-3-4---10~-10-55-8-9--| x 2
--8~-8-33-6-7------------------------------------------------|

(No bass, during Guitar fill)

VERSE (1:10)
--------------------------------------------------------------|
-----------------------------------------------101010-101010/-|
---------------8~-8-33-6-7--10~-10-55-8-9---------------------|
--8~-8-33-6-7------------------------------8~-8---------------|

--------------------------------------------------------------|
--------------------------------------------------------------|
---------------8~-8-33-6-7--10~-10-55-8-9---------------------|
--8~-8-33-6-7------------------------------8~-8-33-6-7--------|

PRE-CHORUS (1:26)
----------------------------------------|
----------------------------------------|
----------------------------------------|
--1-3-4--1-3-4--1-4--1-3-4--1-3-4--1-4--|

--7-7-7-7-7-7-7-7--8-8-8-8-8-8-8-8-8--7-7-7-7---------------|
-------------------------------------------------------/15--|
---5-5-5-5-5-5-5-5--6-6-6-6-6-6-6-6-6--5-5-5-5------/17-----|
-----------------------------------------------3-/15--------|

CHORUS (1:43)
-------------------------------------------------------------|
-------------------------------------------------------------|
----------------10~-10-55-8-9---5~-5-00-3-4---10~-10-55-8-9--| x 2
--8~-8-33-6-7------------------------------------------------|

(Bass pauses)

CHORUS (2:07)
----------------------------------------------------------------|
----------------------------------------------------------------|
----------------10~-10-55-8-9---5~-5-00-3-4---10~-10-55-8-9-10/-|
--8~-8-33-6-7---------------------------------------------------|

(PAUSE during
"Sweet reunion, Jamaica and Spain")

VERSE (2:22)
----------------------|
-------101010-101010/-|
----------------------|
--7-88----------------|

--------------------------------------------------------|
--------------------------------------------------------|
---------------8~-8-33-6-7--10~-10-55-8-9---------------| x 2
--8~-8-33-6-7------------------------------8~-8-33-6-7--|

PRE-CHORUS (2:32)
----------------------------------------|
----------------------------------------|
----------------------------------------|
--1-3-4--1-3-4--1-4--1-3-4--1-3-4--1-4--|

--7-7-7-7-7-7-7-7--8-8-8-8-8-8-8-8-8--7-7-7-7---------------|
-------------------------------------------------------/15--|
---5-5-5-5-5-5-5-5--6-6-6-6-6-6-6-6-6--5-5-5-5------/17-----|
-----------------------------------------------3-/15--------|

FINAL CHORUS/OUTRO (2:49)
-------------------------------------------------------------|
-------------------------------------------------------------|
----------------10~-10-55-8-9---5~-5-00-3-4---10~-10-55-8-9--| x 6
--8~-8-33-6-7------------------------------------------------|

End on

------|
------|
--10--|
------|

By Josh Sharp
Suzi Q Drummer
Suggest correction
Give kudos to tab author, rate the tab!
1 2 3 4 5
comments
print report bad tab
guest
You may want to rate the tab now too:
select rating
Wanna post a correction for this tab? Suggest correction