Oops, an error
Loading. Please wait.

You Probably Couldnt See For The Lights But You Were Looking Straight At Me Tab

version 1
version 1

Whole song

Interactive

41,274 views 87 this week
9 commentsread comments
1 2 3 4 5
x 28
add to favorites
launch autoscroll
font size
0
reset
how to read this tab
guitar tuner
Autoscroll
slow
fast
+/-
esc
set tempo
stop
Help us to improve Ultimate-Guitar.com Take our survey!
×
Author
You Probably Couldn’t See for the Lights but You Were Looking Straight at Me
Arctic monkeys
Tabbed by Ryan.c 

Listen to get the timing right.
U can send your feed back to chhang7@hotmail.com (that’s my email address by the way.)

[Intro]

e|------------------------------------------------|
B|------------------------------------------------|
G|-------------------------12-------------12------| 
D|-9-9-9-9-9-9-9---12-12-x-12-11--12-12-x-12-11---|
A|-9-9-9-9-9-9-9---12-12-x-10-9--12-12-x-10--9----|
E|-7-7-7-7-7-7-7---10-10-x----9--10-10-x-----9----|(x3)

e|--------------------------------------------|
B|--------------------------------------------|
G|-------------------11-11-11-11-11-11-11-11--|
D|--x-9-9--x-x-9-9---11-11-11-11-11-11-11-11--|  
A|--x-9-9--x-x-9-9---9--9--9--9--9--9--9--9---|
E|--x-7-7--x-x-7-7----------------------------|

[Verse]

e|----------|
B|----------|
G|----------|
D|--9-7-----|  
A|------9---| repeats for a bit
E|--------7-|

e|--------------------------------|
B|--------------------------------|
G|--------------------------------|
D|--9-7-------------------5-------|  
A|------9-7---5--7-7--5-7---5-4---|
E|--------------------------------|

[Chorus]

e|------------------|
B|------------------|
G|---------9--11----|
D|--9--12--9--11-12-|  
A|--9--12--7--9--12-|
E|--7--10--------10-|

 This comes after a bit
e|----------------------|
B|----------------------|
G|----------------------|
D|--9-9--7-7------------|  
A|-----------9-9--7-5---| 
E|----------------------|

[Post-Chorus]
(a bit different then the intro)

e|-----------------=-------------------------------------|
B|-------------------------------------------------------|
G|-------------------------------------------------------|
D|-9-9-9-9-9/12\--9-9---7-7-7—-7/9-9-9---7-7-7--7/9-9-9-7|  
A|-9-9-9-9-9/12\--9-9------------------------------------| 
E|-7-7-7-7-7/10\--7-7------------------------------------|(x2)

Then the verse comes in again

[Chorus]


e|-------------------------------------------|
B|-----7----------7--------------------------|
G|-9-9---9-7--9-9---9-7-------------9-11-----|
D|-----------------------9-7-9-7-12-9-11-11--|  
A|-------------------------------12-7-9--11--| 
E|-------------------------------10------9---|(x3)

e|-------------------------------------------------------------|
B|-----7----------7--------------------------------------------|
G|-9-9---9-7--9-9---9-7---11-11-11-11-11-11-11--11-9-7---------|
D|-----------------------------------------------------9-------|  
A|-------------------------------------------------------------| 
E|-------------------------------------------------------------|

e|------------------|
B|------------------|
G|---------9--11----|
D|--9--12--9--11-12-|  
A|--9--12--7--9--12-|
E|--7--10--------10-|


[Verse]

e|-------------|
B|-------------|
G|--12-11---9--|
D|--12-11-9-9--|  
A|--10-9--9-7--|
E|--------7----|(x3)

e|---------------------|
B|---------------------|
G|---------------------|
D|--5--12---9-9-9-9-9-9|  
A|--5--12---9-9-9-9-9-9|
E|--3--10---7-7-7-7-7-7|


************************************

| x  Dead note
| /  Slide up
| \  Slide down

************************************
Suggest correction
comments
print report bad tab
9 comments total. Showing first comments. show 1 bad comment
0 reply
ashjamben 10 Mar 13, 2006 11:27 AM

for intro play b5-d5-g5-c#5-d5-g5-c#5 instead. where ever the intro part is played play this

0 reply
chrissya8 10 Mar 23, 2006 04:20 PM

not very goodmate im afraid to say.

guest
You may want to rate the tab now too:
select rating
Wanna post a correction for this tab? Suggest correction