Oops, an error
Loading. Please wait.

You Probably Couldnt See For The Lights But You Were Looking Straight At Me Bass Tab

version 2
version 2

Whole song

Interactive

661 views 9 this week
no commentswrite comment
1 2 3 4 5
please rate
add to favorites
launch autoscroll
font size
0
reset
guitar tuner
Autoscroll
slow
fast
+/-
esc
set tempo
stop
Help us to improve Ultimate-Guitar.com Take our survey!
×
Author
Artist: Arctic Monkeys

Album: Whatever People Say I Am That's What I Am Not



All tabs by Pedro Zappa
-----------------------------------------------------------------------------
-----------------------------------------------------------------------------


5. You Probably Couldn't See For The Lights But You Were Looking Straight At Me


Intro

G||--------------------|--------------------|
D||--------------------|--------------------|
A||/2-2--2-2--2-2--2-2-|-2-2--2-2--2-2--2-2-|
E||--------------------|--------------------|
    i    i    i    i     i    i    i    i
G||--------------------|--------------------||  x2
D||--------5-----------|--------5-----------||
A||-5-----------4------|-5-----------4------||
E||--------------------|--------------------||
    i    i    i    i     i    i    i    i
G||--------------------|--------------------|
D||--------------------|--------------------|
A||--------2-----------|------0-2-----------|
E||--------------------|--------------------|
    i    i    i    i     i    i    i    i
G||--------------------|--------------------|--------------------||
D||--------------------|--------------------|--------------------||
A||-9-9--9-9--9-9--9-9-|-9------------------|--------------------||
E||--------------------|--------------------|--------------------||
    i    i    i    i     i    i    i    i     i    i    i    i

Verse

G||--------------------|--------------------|
D||------9----7-7------|--------------------|
A||----------------9---|-7----------------5-|
E||-7-7----------------|--------------------|
    i    i    i    i     i    i    i    i
G||--------------------|--------------------||  x4
D||--------------------|------5-------------||
A||-7----7-----------5-|-7---------5----4---||
E||--------------------|--------------------||
    i    i    i    i     i    i    i    i

Chorus

G||--------------------|--------------------|
D||-----------0--------|-2------4------x0---|
A||-2------------------|--------------------|
E||--------------------|--------------------|
    i    i    i    i     i    i    i    i
G||--------------------|--------------------||  x2
D||-----------0----0-0-|-2----2-4------x0---|| 
A||-2----2-2-----------|--------------------||
E||--------------------|--------------------||
    i    i    i    i     i    i    i    i
G||--------------------|--------------------||  x4
D||-----------0----0-0-|-2----2-4------x0---||
A||-2----2-2-----------|--------------------||
E||--------------------|--------------------||
    i    i    i    i     i    i    i    i

G||--------------------|--------------------|
D||--------------------|--------------------|
A||/2-2--2-2--2-2--2-2-|-2-2--2-2--2-2--2-2-|
E||--------------------|--------------------|
    i    i    i    i     i    i    i    i
G||--------------------|--------------------||
D||--------5-----------|--------5-----------||
A||-5-----------4------|-5-----------4------||
E||--------------------|--------------------||
    i    i    i    i     i    i    i    i
G||--------------------|--------------------|
D||--------------------|--------------------|
A||/2-2--2-2--2-2--2-2-|-2-2--2-2--2-2--2-2-|
E||--------------------|--------------------|
    i    i    i    i     i    i    i    i
G||--------------------|--------------------||
D||--------5-----------|--------------------||
A||-5-----------4------|-5------------------||
E||--------------------|--------------------||
    i    i    i    i     i    i    i    i

Verse

(wait)

G||--------------------|--------------------|
D||--------------------|--------------------|
A||-7-7--7-7--7-7--7-7-|-5-5--5-5--5-5--5-5-|
E||--------------------|--------------------|
    i    i    i    i     i    i    i    i
G||--------------------|--------------------||  x3
D||--------------------|-0----2----4----7---||
A||-2-2--2-2--2-2--2-2-|--------------------||
E||--------------------|--------------------||
    i    i    i    i     i    i    i    i
G||--------------------|--------------------|
D||--------------------|--------------------|
A||-7-7--7-7--7-7--7-7-|-5-5--5-5--5-5--5-5-|
E||--------------------|--------------------|
    i    i    i    i     i    i    i    i
G||--------------------|--------------------||  x3
D||--------------------|--------------------||
A||-9-9--9-9--9-9--9-9-|-9-9--9-9--7--5--4--||
E||--------------------|--------------------||
    i    i    i    i     i    i    i    i


G||--------------------|--------------------|
D||--------------------|--------------------|
A||-2------------------|--------------------|
E||--------------------|--------------------|
    i    i    i    i     i    i    i    i
G||--------------------|--------------------|
D||------4-------------|--------------------|
A||-2---------5--------|--------------------|
E||--------------------|--------------------|
    i    i    i    i     i    i    i    i
G||--------------------|--------------------|
D||------4-------------|--------------------|
A||-2---------5--------|-7------9------x5---|
E||--------------------|--------------------|
    i    i    i    i     i    i    i    i
G||--------------------|--------------------|
D||------4-------------|--------------------|
A||-2---------5--------|--------------------|
E||--------------------|--------------------|
    i    i    i    i     i    i    i    i

Outro

G||--------------------|--------------------||  x3
D||-5-5-------4-4------|-----------2-2------||
A||--------------------|-2-2----------------||
E||--------------------|--------------------||
    i    i    i    i     i    i    i    i
G||--------------------|--------------------|
D||--------------------|--------------------|
A||-----------5-5------|--------------------|
E||-3-3----------------|--------------------|
    i    i    i    i     i    i    i    i

(wait)


G||--------------------|--------------------|
D||--------------------|--------------------|
A||/2-2--2-2--2-2--2-2-|-2-2--2-2--2-2--2-2-|
E||--------------------|--------------------|
    i    i    i    i     i    i    i    i
G||--------------------|--------------------|
D||--------------------|--------------------|
A||-5----5----5----5---|-5----5----5----5---|
E||--------------------|--------------------|
    i    i    i    i     i    i    i    i


Tab by Pedro Zappa
-----------------------------------------------------------------------------
-----------------------------------------------------------------------------

Suggest correction
What's this?
You can suggest a correction to this tab. Community and Mods will review your correction and vote to approve or reject it.
comments
We did not receive enough feedback on this tab! Please rate:
print report bad tab
1 2 3 4 5
guest
You may want to rate the tab now too:
select rating
Please do not post tabs as comments. Select "correction" instead!