Oops, an error
Loading. Please wait.

Euphemia Tab

version 1
version 1

Whole song

Interactive

18,126 views 3 this week
3 commentsread comments
1 2 3 4 5
please rate
add to favorites
launch autoscroll
font size
0
reset
how to read this tab
guitar tuner
Tab Pro tools
  • play this tab
  • loop segment
  • change instrument
  • show fretboard
  • metronome
×
Best way to learn
"Euphemia"
Autoscroll
slow
fast
+/-
esc
set tempo
stop
Contributor
Tabs by Jerome Jeremy (Check him out on YouTube at Zepp94Strat) Put up by Dan
Tesenair. Hope this helps.

Distortion settings,
Dist 6
Gain boost 10
tremble 8
bass 5
Intitial gain 2

Standard tuning


Intro
--------------------------------------------------------------|
--------------------------------------------------------------|
-----99--99---55--55-------77--77-----------------------------|
-----99--99---55--55---5---77--77-----------------------------|
-----77--77---33--33---5---55--55-----------------------------|
-----------------------3--------------------------------------|

Intro solo
-------------------------------------------------------15b--15-|
---15b----------------12---15--15~-----------------12----------|
--------------12--14-----------------------12--14--------------|
------12--14-----------------------12--14----------------------|
---------------------------------------------------------------|
---------------------------------------------------------------|


---12--12--14p12------------------------12 slide to 23--------|
----------------15------------------12------------------------|
----------------------------12--14----------------------------|
--------------------12--14------------------------------------|
--------------------------------------------------------------|
--------------------------------------------------------------|


--------------------------------------------------------------|
--15b15b--15b15b--15b15b--15b15b--15b15b--15------------------|
--------------------------------------------------------------|
--------------------------------------------------------------|
--------------------------------------------------------------|
--------------------------------------------------------------|


------------------------------------------- -Repeat 5 times---|
--15b--15--12------------------------------ ------------------|
-------------14--14b--12------------------- ------------------|
------------------------14--12--14b--12---- ---12-14p12-------|
------------------------------------------- -14---------------|
------------------------------------------- ------------------|


----------------------- -Repeat 8 times- ---------------------|
----------------------- ----12-15p12---- -15b15--12-----------|
----------12--14--14b14~--14------------ ----------14b14--12--|
----12--14------------- ---------------- ---------------------|
--14------------------- ---------------- ---------------------|
----------------------- ---------------- ---------------------|


--------------------------------------------------------------|
--------------------------------------------------------------|
--------------------------------------------------------------|
--14b14--12-12-------------12--14--12--14--14b--12------------|
--------------14--12-12--14-----------------------------------|
--------------------------------------------------------------|

Verse 1 x3
--------------------------------------------------------------|
--------------------------------------------------------------|
---99--99--55-55---------77-7-----Pick sweep from bridge to---|
---99--99--55-55--55-55--77-7----------   5th fret           -|
---77--77--33-33--55-55--55-5---------------------------------|
------------------33-33---------------------------------------|

Last part of Verse
--------------------------------------------------------------|
--------------------------------------------------------------|
---99--99--55-55-77-77---99--9--9-----------------------------|
---99--99--55-55-77-77---99--9--9-----------------------------|
---77--77--33-33-55-55---77--7--7-----------------------------|
--------------------------------------------------------------|

Pre Chorus Solo
--------------------------------------------------------------|
--------------------------------------------------------------|
--14b-12---12-14-14b*-12-14-12-14-12-14-14b*-14---------------|
--------14----------------------------------------------------|
--------------------------------------------------------------|
--------------------------------------------------------------|


---------------------------------------------------------------|
-----12-15p12---12-15p12---12-15p12---12-15p12-12-15-15b-15-12-|
---14---------14---------14---------14-------------------------|
---------------------------------------------------------------|
---------------------------------------------------------------|
---------------------------------------------------------------|

--------------------------------------------------------------|
--------------------------------------------------------------|
--14b-14-12-14b-12--------------------------------------------|
------------------14b-14-12-14-12-----------------------------|
--------------------------------------------------------------|
--------------------------------------------------------------|


--15-14---15-14-----------------------------------------------|
-------15------15-15b-15-12-----------------------------------|
---------------------------14b-12-14-12-----------------------|
----------------------------------------14-12-12-14-12-14-12--|
--------------------------------------------------------------|
--------------------------------------------------------------|


--------------------------------------------------------------|
--------------------------------------------------------------|
--------------------------------------------------------------|
--------------------------------12-14-14b-14-12---------------|
--14-12-14-12-14-12--------12-14----------------14------------|
-------------------14-12-14-----------------------------------|

Chorus
------------------------7-10p7---7-10p7---7-10p7---7-10p7-----|
--------8-5-5---------10------ 10-------10-------10-----------|
-----------7--5---7-------------------------------------------|
--5-4-2-------5-5-7-------------------------------------------|
--5-4-2-------3-5-5-------------------------------------------|
--3-2-0---------3---------------------------------------------|


-----------------0----------------------|
-----------------0----------------------|
--9--7---9-7-4-2-0--5-7-9999999--5-7----|
--9--7---9-7-4-2-0--5-7-9999999--5-7----|
--7--5---7-5-2-0-0--3-5-7777777--3-5----|
-----------------0----------------------|

end of chorus
--------------------------------------------------------------|
--8-5-5-5--8-5-5-5-----12-8-12-8-12-8-12-10-------------------|
-----7-7------7-7---------------------------------------------|
--------------------------------------------------------------|
--------------------------------------------------------------|
--------------------------------------------------------------|


--------------------------------------------------------------|
--8-5-5-5--8-5-5-5-----12-10-12 slide to 15-------------------|
-----7-7------7-7---------------------------------------------|
--------------------------------------------------------------|
--------------------------------------------------------------|
--------------------------------------------------------------|

Repeat verse, but only ONCE, not 3 times,
Then followed by end of verse

Pre Chorus Solo 2
-15-14----15-14---------------------15-14--17-15-14-15-14-12--|
------15-------15-15b-12--15-12----------15-------------------|
------------------------14-----14-12--------------------------|
--------------------------------------------------------------|
--------------------------------------------------------------|
--------------------------------------------------------------|

( slide slowly while picking fast )
-12/14--8/15\8-10/17\10---------------------------------------|
-------------------------15b-15-12----------------------------|
-----------------------------------14b-14-12-14b-14-12--------|
------------------------------------------------------14------|
--------------------------------------------------------------|
--------------------------------------------------------------|

(Repeat chorus)

Lead Guitar SOLO
--------------------------------------------------|
--------------------------------------------------|
--------------------------------------------------|
---------4-5*--4-5-7-5-4-2-0-2-0-2----2-00-2-4-5*-|
---7-55-7-----------------------------------------|
--------------------------------------------------|


--------------------------------------------------------------|
---------------------------15b-------- 12-13p12---------------|
---4-5/7-5-4-5/7/9/12/14------14-12-14*--------14-12-12-14----|
--------------------------------------------------------------|
--------------------------------------------------------------|
--------------------------------------------------------------|


--------------------------------------------------------------|
--------------------------------------------------------------|
---12-14-14*-12--12*-------------------------------------12*--|
---------------14-----12-14p12--12-14p12--12-14p12--12-14-----|
--------------------14--------14--------14--------14----------|
--------------------------------------------------------------|

--------------------------------------------------------------|
--------------------------------------------------------------|
-14*-12*-14*-12*-14*-12*-14*----14*--12*-14*~ ----------------|
--------------------------------------------------------------|
--------------------------------------------------------------|
--------------------------------------------------------------|


--------------------------------------------------------------|
--12-15-12-15b* 15-12-----------------------------------------|
---------------------14-12-14-12---12-14-14*------------------|
---------------------------------14---------------------------|
--------------------------------------------------------------|
--------------------------------------------------------------|

(Triple Picking)
-15-15-15-14-14-14-12-12-12-----------------------------------|
---------------------------15-15-15-12-12-12--------12-15*----|
--------------------------------------------14-14-14----------|
--------------------------------------------------------------|
--------------------------------------------------------------|
--------------------------------------------------------------|


-17-17---17-17-17----15-14-12-12------------------------------|
--------------------------------15-12-------------------------|
--------------------------------------14-12*------------------|
--------------------------------------------------------------|
--------------------------------------------------------------|
--------------------------------------------------------------|


---------------------------------------------------------------|
---------------12-13-12----------------------------------------|
--14b*-14-12-14--------14-12-----------------------------------|
-----------------------------14(increase echo if possible)-12--|
---------------------------------------------------------------|
---------------------------------------------------------------|


--------------------------------------------------------------|
--15b*-15*-12*------------------------------------------------|
--------------14*-14*-12*-12b*-12*----------------------------|
----------------------------------14*-12-14*-12*--------------|
--------------------------------------------------------------|
--------------------------------------------------------------|


--------------------------------------------------------------|
--------------------------------------------------------------|
--------------------------------------------------------------|
--14*-12*-9*-7*-5*-2*-0-2*-2----------------------------------|
---------------------------------5V--Full neck slide up-------|
--------------------------------------------------------------|

Repeat chorus, extra chorus layers are as follows
--------------------------------------------------------------|
--------------------------------------------------------------|
----5-7-9-----------------5-7-9\5/7/9-------------------------|
----5-7-9--PICK SCRAPE UP-5-7-9\5/7/9-------------------------|
----3-5-7-----------------3-5-7\3/5/7-------------------------|
--------------------------------------------------------------|


--------------------------------------------------------------|
--scrape-- scrape-- Scrape------------------------------------|
--------5--------7--------9----5555-7777-9999999--------------|
--------5--------7--------9----5555-7777-9999999--------------|
--------3--------5--------7----3333-7777-9999999--------------|
--------------------------------------------------------------|

That's all, credit goes to AREA 11,,
comments
We did not receive enough feedback on this tab! Please rate:
print report bad tab
1 2 3 4 5
3 comments total.
0 reply
tallicafan888 wrote on December 19 2012, 07:37 am

Sorry buddy, but alot of this seems wrong. The pre chorus's are missing among other bits and there's a lot of wrong chords/notes.

0 reply
Vaquent wrote on February 3 2013, 05:07 pm

Are you comparing this to the Album version, because this is tabbed for the video here: http://www.youtube.com/watch?v=wDNRKYI75jU

0 reply
aids0109 wrote on February 16 2015, 09:57 am

What amp was this for as on my Line 6 Spider it's way too distorted. Even then, it makes it seem like a Metal variation when it's on the distortion setting, the crunch setting is still too distorted.

I want to post or [tab]
guest
You may want to rate the tab now too:
select rating
Please do not post tabs as comments. Select "correction" instead!