Oops, an error
Loading. Please wait.

Heaven-Piercing Giga Drill bass

version 1
version 1

Whole song

Interactive

by Area 11
1,847 views 1 this week
no commentswrite comment
1 2 3 4 5
1 last vote to show rating
add to favorites
×
Save as Personal and add changes to this tab that will be seen only by you. Learn more ›
×
You can save this tab as Personal to edit and correct it or add notes. All changes will be seen only by you. Learn more »
launch autoscroll
font size
0
reset
guitar tuner
edit
Autoscroll
slow
fast
+/-
esc
set tempo
stop
Author
Difficulty
Title: Heaven-Piercing Giga Drill
Artist: Area 11
Album: All The Lights In The Sky & Blackline EP
Track No.: 10 & 2

The most noticeable part of this track is the drum intro, also those long
time fans will comment on the lack of difference of both versions,
considering both Legendary Sannin (Shi No Barado B-Side) and Euphemia were
both considerably different. This is a fast paced song that doesn't seem to
relent, but is actually relatively simple.

Area 11 is a British band from Bristol. They have a big twist, however, they
have a love of anime. The band sing about popular anime's while combing
different elements of different genres including the Eastern music and
Western music cultures. For example Tokyo House Party twists from a Rock song
to a Electro soundtrack to a distortion based breakdown. Many know Area 11
for Sparkles* (lead singer) appearance with the internet superstars the
YogsCast (British comedy duo) and the use of their music (Vectors track 2
ending) for outing the videos. A recent single of theirs includes Minecraft
Christmas which features Simon Lane of the YogsCast and which video has all
the members of this internet monopoly. The members to date include: Sparkles*
(singer/keytarist), Parv (guitarist), Kogie (bassist) and Leo (drummer).

Tuning: Standard (EADG)

Heaven-Piercing Giga Drill:

INTRO

|-------------------------|
|-------------------------|
|-------------------7777--| x2
|2-2-2222-2222-5555-------|


VERSE:

|-------------------|
|-------------------|
|----------------77-|
|22-55-77-22--55----|

|---------------|
|---------------|
|------77-55-77-|
|22-55----------|


PRE CHORUS

|------------------------------|
|------------------------------|
|--------------7777-5555-7777--| x2
|22222222-5555-----------------|

CHORUS

|-------------------|
|-------------------|
|-5-7-9-12-9-7-7777-|
|-------------------|

|--------------------|
|--------------------|
|-5-7-9-12-9999-7777-|
|--------------------|

|--------------------|
|--------------------|
|-5-7-9-12-9-12-7777-|
|--------------------|

|---------------|
|---------------|
|-5-7-2222-5555-|
|---------------|

POST CHORUS (RO RO FIGHT THE POWER)

|---------------------|
|---------------------|
|---------------7777--| x2
|2222-2222-5555-------|

|--------------|
|--------------|
|55-77-99-1212-|
|--------------|

|-------------|
|-------------|
|55-77-99~----|
|-------------|


GO!

|---------------------|
|---------------------|
|---------------7777--| x2
|2222-2222-5555-------|


VERSE:

|-------------------|
|-------------------|
|----------------77-|
|22-55-77-22--55----|

|---------------|
|---------------|
|------77-55-77-|
|22-55----------|


PRE CHORUS

|------------------------------|
|------------------------------|
|--------------7777-5555-7777--| x2
|22222222-5555-----------------|


CHORUS

|-------------------|
|-------------------|
|-5-7-9-12-9-7-7777-|
|-------------------|

|--------------------|
|--------------------|
|-5-7-9-12-9999-7777-|
|--------------------|

|--------------------|
|--------------------|
|-5-7-9-12-9-12-7777-|
|--------------------|

|---------------|
|---------------|
|-5-7-2222-5555-|
|---------------|

POST CHORUS (WHO THE HELL DO YOU THINK WE ARE)
|---------------------|
|---------------------|
|---------------7777--| x2
|2222-2222-5555-------|

|---------------|
|---------------|
|55-77-99-1212--| x3
|---------------|

|-------------|
|-------------|
|55-77-99~----|
|-------------|


BRIDGE

|------------------|
|------------------|
|---5~-------------|
|5~-------2~-0~-5~-|

|----------------|
|----------------|
|----5555--------|
|5555-----220055-|


SOLO

|---------|
|---------|
|2222-5555| x3
|---------|

|---------|
|---------|
|222200-55|
|---------|

|----------|
|----------|
|----------|
|3~~~/10~~~|


BRIDGE PT 2

|---------------------|
|---------------------|
|------2222-----------|
|33-55------0000-5555-|


OUTRO

|--------------|
|--------------|
|---------5-7--| x2
|--------------|

|------------|
|------------|
|22222222-5-7| x4
|------------|

|------------|
|------------|
|22-22-22-2~-|
|------------|

Bass Slides (can't work out sorry!)
Suggest correction
Creating personal tab
Creating personal tab
You can edit any tab online and save it as your Personal.

You can edit, replace or remove any tab part or add personal notes – all changes will be seen only by you.

Personal tabs can be accessed anytime from any device, even offline.
Learn more »
Give kudos to tab author, rate the tab!
1 2 3 4 5
comments
print report bad tab
guest
You may want to rate the tab now too:
select rating
Wanna post a correction for this tab? Suggest correction