Oops, an error
Loading. Please wait.

Heaven-Piercing Giga Drill bass

version 2
version 2

Whole song

Interactive

by Area 11
1,798 views 1 this week
no commentswrite comment
1 2 3 4 5
1 last vote to show rating
add to favorites
×
Save as Personal and add changes to this tab that will be seen only by you. Learn more ›
×
You can save this tab as Personal to edit and correct it or add notes. All changes will be seen only by you. Learn more »
launch autoscroll
font size
0
reset
guitar tuner
edit
Autoscroll
slow
fast
+/-
esc
set tempo
stop
Author
All The Lights In The Sky/Heaven-Piercing Giga Drill @ The Pipeline
http://www.youtube.com/watch?v=wgHprYDXNsU

This isn't going to follow my traditional tab layout as it's a long tab.

All The Lights In The Sky is the Bosozoku Symphonic Part 4. Which in the
album is a guitar only track, but in the gig at The Pipeline is given a
bridge which introduces the whole band.

All The Lights In The Sky

UG IS STUPID SEE THE OTHER TAB FOR HEAVEN PIERCING GIGA DRILL ONLY TAB, THIS
SONG IS THEIR PIPELINE GIG ONE.
UG should really read their uploads briefly before changing the name.

1:16 Full Band Bridge
|--------------|
|--------------|
|--------2-2---|
|2-2-5-5-----2-|

Sometimes I disagreed...
|--------------|
|--------------|
|--------2-2---|
|2-2-5-5-----2-|

You were right
|----------------|
|----------------|
|--------5-5-7-7-|
|2-2-5-5---------|

Here I break with the concept,
|----------------|
|----------------|
|5-5-----2-2-----|
|----5-5-----2-2-|

Leave my mark on the canvas,
|----------------|
|----------------|
|2-2-5-5-7-7-9-9-|
|----------------|

I deferred my happiness
|---------------|
|--------0---2--|
|2--------------|
|---------------|

But once I'm where I wanna be
|----------------|
|----------------|
|2-2-2-2-5-5-7-7-|
|----------------|

All the lights in the sky
|----------------|
|----------------|
|5-------2-2-----|
|----5-5-----2-2-|

And the chains that pull me down,
|----------------|
|----------------|
|5-5-----7-7-7-7-|
|----5-5---------|

As the line begins to blur,
|----------------|
|----------------|
|5-5-----4-4-5-5-|
|----2-2---------|

But I'll rip out all the hooks
|---------------|
|---------------|
|2---5---7---9--|
|---------------|

Yeah I'll rip out all the hooks
|----------------|
|----------------|
|2-2-5-5-7-7-9-9-|
|----------------|

Yeah I will rip out all the love
|---------------|
|-----REST------|
|---------------|
|---------------|


RO RO FIGHT THE POWER


Heaven-Piercing Giga Drill:

INTRO

|-------------------------|
|-------------------------|
|-------------------7777--| x2
|2-2-2222-2222-5555-------|


VERSE:

|-------------------|
|-------------------|
|----------------77-|
|22-55-77-22--55----|

|---------------|
|---------------|
|------77-55-77-|
|22-55----------|


PRE CHORUS

|------------------------------|
|------------------------------|
|--------------7777-5555-7777--| x2
|22222222-5555-----------------|

CHORUS

|-------------------|
|-------------------|
|-5-7-9-12-9-7-7777-|
|-------------------|

|--------------------|
|--------------------|
|-5-7-9-12-9999-7777-|
|--------------------|

|--------------------|
|--------------------|
|-5-7-9-12-9-12-7777-|
|--------------------|

|---------------|
|---------------|
|-5-7-2222-5555-|
|---------------|

POST CHORUS (RO RO FIGHT THE POWER)

|---------------------|
|---------------------|
|---------------7777--| x2
|2222-2222-5555-------|

|--------------|
|--------------|
|55-77-99-1212-|
|--------------|

|-------------|
|-------------|
|55-77-99~----|
|-------------|


GO!

|---------------------|
|---------------------|
|---------------7777--| x2
|2222-2222-5555-------|


VERSE:

|-------------------|
|-------------------|
|----------------77-|
|22-55-77-22--55----|

|---------------|
|---------------|
|------77-55-77-|
|22-55----------|


PRE CHORUS

|------------------------------|
|------------------------------|
|--------------7777-5555-7777--| x2
|22222222-5555-----------------|


CHORUS

|-------------------|
|-------------------|
|-5-7-9-12-9-7-7777-|
|-------------------|

|--------------------|
|--------------------|
|-5-7-9-12-9999-7777-|
|--------------------|

|--------------------|
|--------------------|
|-5-7-9-12-9-12-7777-|
|--------------------|

|---------------|
|---------------|
|-5-7-2222-5555-|
|---------------|

POST CHORUS (WHO THE HELL DO YOU THINK WE ARE MOTHERFUCKER)
|---------------------|
|---------------------|
|---------------7777--| x2
|2222-2222-5555-------|

|---------------|
|---------------|
|55-77-99-1212--| x3
|---------------|

|-------------|
|-------------|
|55-77-99~----|
|-------------|


BRIDGE

|------------------|
|------------------|
|---5~-------------|
|5~-------2~-0~-5~-|

|----------------|
|----------------|
|----5555--------|
|5555-----220055-|


SOLO

|---------|
|---------|
|2222-5555| x3
|---------|

|---------|
|---------|
|222200-55|
|---------|

|----------|
|----------|
|----------|
|3~~~/10~~~|


BRIDGE PT 2

|---------------------|
|---------------------|
|------2222-----------|
|33-55------0000-5555-|


OUTRO

Guitar

4!
3!
2!
1!

|---|
|---|
|5-7|
|---|

|------------|
|------------|
|22222222-5-7| x4
|------------|

|------------|
|------------|
|22-22-22-2~-|
|------------|


END SHOW
                 5!  6!  7!  8!  9!  10!
|-----------------------------------------|
|-----------------------------------------|
|2---2---2---2---2---2---2---2---2---2~~~-|
|-----------------------------------------|

Cymbals

|--|
|--|
|2-|
|--|
Suggest correction
Creating personal tab
Creating personal tab
You can edit any tab online and save it as your Personal.

You can edit, replace or remove any tab part or add personal notes – all changes will be seen only by you.

Personal tabs can be accessed anytime from any device, even offline.
Learn more »
Give kudos to tab author, rate the tab!
1 2 3 4 5
comments
print report bad tab
guest
You may want to rate the tab now too:
select rating
Wanna post a correction for this tab? Suggest correction