Oops, an error
Loading. Please wait.

Minecraft Christmas Bass Tab

version 1
version 1

Whole song

Interactive

1,895 views 3 this week
no commentswrite comment
1 2 3 4 5
x 3
add to favorites
launch autoscroll
font size
0
reset
guitar tuner
Autoscroll
slow
fast
+/-
esc
set tempo
stop
Help us to improve Ultimate-Guitar.com Take our survey!
×
Author
Difficulty
novice
Title: Minecraft Christmas
Artist: Area 11

Minecraft Christmas is distinctive for as one of the key singles Area 11 has
released. Designed as a Christmas song it scored well in the UK at Christmas.
The key point of the song is being based off hit indie game from Mojang,
Minecraft. The song has several references from songs such as the Minecraft
seed, 68954012663 (which spawns in a snowy forest) and the fact that the food
at the time of the song release was limited. The clear links between the
YogsCast at this point is painstakingly obvious (fact the music video is on
their main channel).

Area 11 is a British band from Bristol. They have a big twist, however, they
have a love of anime. The band sing about popular anime's while combing
different elements of different genres including the Eastern music and
Western music cultures. For example Tokyo House Party twists from a Rock song
to a Electro soundtrack to a distortion based breakdown. Many know Area 11
for Sparkles* (lead singer) appearance with the internet superstars the
YogsCast (British comedy duo) and the use of their music (Vectors track 2
ending) for outing the videos. A recent single of theirs includes Minecraft
Christmas which features Simon Lane of the YogsCast and which video has all
the members of this internet monopoly. The members to date include: Sparkles*
(singer/keytarist), Parv (guitarist), Kogie (bassist) and Leo (drummer).

Tuning: Standard (EADG)

Intro:

|------------------|
|------------------|
|55555555----5555--| x2
|--------3333------|


Verse 1:
                     -
|----------------    |
|----------------    |
|55555555----5555 x3 |
|--------3333----    |
                     | x2
|----------------    |
|----------------    |
|2222222200005555    |
|----------------    |
                     -

Bridge 1:

|------------------|
|------------------|
|--------00005555--| x2
|33333333----------|

|-----------------|
|-----------------|
|--------22222222-|
|33333333---------|

|----------------|
|----------------|
|0000000000000000
|----------------

Chorus:

|-----------------|
|--------22222222-|
|-5--5------------|
|-----------------|

|-----------------|
|-----------------|
|--------00000000-|
|33333333---------|

|-----------------|
|--------22222222-|
|-5--5------------|
|-----------------|

|-----------------|
|-----------------|
|--------00000000-|
|33333333---------|


Post Chorus:

|----------------|
|----------------|
|5555555555555555
|----------------


Verse 2:
                     -
|----------------    |
|----------------    |
|55555555----5555 x3 |
|--------3333----    |
                     | x2
|----------------    |
|----------------    |
|2222222200005555    |
|----------------    |
                     -

Bridge 2:

|------------------|
|------------------|
|--------00005555--| x2
|33333333----------|

|-----------------|
|-----------------|
|--------22222222-|
|33333333---------|

|----------------|
|----------------|
|0000000000000000
|----------------

Chorus:

|-----------------|
|--------22222222-|
|-5--5------------|
|-----------------|

|-----------------|
|-----------------|
|--------00000000-|
|33333333---------|

|-----------------|
|--------22222222-|
|-5--5------------|
|-----------------|

|-----------------|
|-----------------|
|--------00000000-|
|33333333---------|


Solo:

|----------|
|----------|
|-----5-0--| x3
|-3-3------|

|-----------------|
|-----------------|
|--------00005555-|
|00003333---------|


Post Solo:

|----------------|
|----------------|
|5555555555555555
|----------------


Verse 3:

|------------------|
|------------------|
|55555555----5555--| x3
|--------3333------|

|----------------|
|----------------|
|2222222200005555
|----------------


Bridge 3:

|------------------|
|------------------|
|--------00005555--| x2
|33333333----------|

|-----------------|
|-----------------|
|--------22222222-|
|33333333---------|

|----------------|
|----------------|
|0000000000000000
|----------------

Chorus:

|-----------------|
|--------22222222-|
|-5--5------------|
|-----------------|

|-----------------|
|-----------------|
|--------00000000-|
|33333333---------|

|-----------------|
|--------22222222-|
|-5--5------------|
|-----------------|

|-----------------|
|-----------------|
|--------00000000-|
|33333333---------|


Outro:

|-----------------|
|--------33333333-|
|-6--6------------|
|-----------------|

|-----------------|
|-----------------|
|--------11111111-|
|44444444---------|

|-----------------|
|--------33333333-|
|-6--6------------|
|-----------------|

|-----------------|
|-----------------|
|--------11111111-|
|44444444---------|

|-----------------|
|-----------------|
|--------33333333-|
|44444444---------|

|-----------------|
|-----------------|
|--------11111111-|
|44444444---------|

|--------|
|--------|
|5-5-5~~-|
|--------|
Suggest correction
Give kudos to tab author, rate the tab!
1 2 3 4 5
comments
print report bad tab
guest
You may want to rate the tab now too:
select rating
Wanna post a correction for this tab? Suggest correction