Oops, an error
Loading. Please wait.

Override C tab

version 1
version 1

Whole song

by Area 11
73 views 1 this week
no commentswrite comment
1 2 3 4 5
2 more votes to show rating
add to favorites
×
Save as Personal and add changes to this tab that will be seen only by you. Learn more ›
×
You can save this tab as Personal to edit and correct it or add notes. All changes will be seen only by you. Learn more »
launch autoscroll
font size
0
reset
how to read this tab
guitar tuner
edit
Autoscroll
slow
fast
+/-
esc
set tempo
stop
Author
Difficulty
-----------------------------------------------------------------
Override1[C] - Area 11
-----------------------------------------------------------------
Tabbed by: Josh Smith
Email: JSmithCreations93@gmail.com
Tuning: Standard

As far as I've seen, there's only a tab for the solo and I think i've tweaked various bits from that too,
this is certainly not perfect, but someone asked me to tab how i play it so hey. Feel free to use this to make
improved versions or covers should you see fit :)

1:35 - Strange are the things that will come unbound...
e|---------------------------------------------------------------|
B|---------------------------------------------------------------|
G|---------------------------------------------------------------|
D|--2------5------7------9---------------------------------------|x2
A|--2x16---5x16---7x16---9x16------------------------------------|
E|--0------3------5------7---------------------------------------|
  PM-------------------------------------------------------------

2:03 Solo 1
e|--------------------------15-14--12--------/19-19-17-15-17-----|
B|-12----------12----------------14---12--12---------------------|
G|--------------------------------------14-----------------------|
D|---14-12-14----14-12-14----------------------------------------|
A|---------------------------------------------------------------|
E|---------------------------------------------------------------|

e|------------------------------------------------------------------|
B|-12----------12---------------------------------------------------|
G|-----------------------------------------------14-14-12-11-11-12-9|
D|---14-12-14----14-12-14----14-14-12--14-14-12---------------------|
A|------------------------------------------------------------------|
E|------------------------------------------------------------------|

2:20 In death coerced, to test your worth...
e|---------------------------------------------------------------|
B|---------------------------------------------------------------|
G|---------------------------------------------------------------|
D|-5-----2-----7-----------5-----7-----2-------------------------|
A|-5x8---2x4---7x4---------5x8---7x4---2x4-----------------------|
E|-3-----0-----5-----------3-----5-----0-------------------------|

e|---------------------------------------------------------------|
B|---------------------------------------------------------------|
G|---------------------------------------------------------------|
D|-2------5------7------7-7--7--5-5--5-5-5-----------------------|
A|-2x16---5x16---7x16---7-7--7--5-5--5-5-5-----------------------|
E|-0------3------5------5-5--5--3-3--3-3-3-----------------------|
 PM-------------------

e|---------------------------------------------------------------|
B|---------------------------------------------------------------|
G|---------------------------------------------------------------|
D|-2------5------7------9-9--9-9--9------------------------------|
A|-2x16---5x16---7x16---9-9--9-9--9------------------------------|
E|-0------3------5------5-5--5-5--5------------------------------|
 PM-------------------

2:55 Solo 2
e|--------------------------15-14--12--------/19-19-17-15-17-----|
B|-12----------12----------------14---12--12---------------------|
G|--------------------------------------14-----------------------|
D|---14-12-14----14-12-14----------------------------------------|
A|---------------------------------------------------------------|
E|---------------------------------------------------------------|

e|--------------------------------------------------15--15-15-14-12--|
B|-12----------12---------------------------------15--15-----------15|
G|------------------------12-12-12-12-14-14-14-14--------------------|
D|---14-12-14----14-12-14--------------------------------------------|
A|-------------------------------------------------------------------|
E|-------------------------------------------------------------------|

e|---------------------------------------------------------------|
B|-12------------------------------------------------15--15--17--|
G|-------------12b----------12b------------12--12--16--16--------|
D|---14-12-14----------------------------14--14------------------|
A|----------------14-12-14-----14-12-14--------------------------|
E|---------------------------------------------------------------|

e|-15---15-19---19-17-15-12--------------------------------------|
B|---17----------------------------------------------------------|
G|---------------------------------------------------------------|
D|---------------------------------------------------------------|
A|---------------------------------------------------------------|
E|---------------------------------------------------------------|

3:30 Make a stand in afterglow...
e|---------------------------------------------------------------|
B|---------------------------------------------------------------|
G|---------------------------------------------------------------|
D|--5-----7-----2------------------------------------------------|
A|--5x8---7x4---2x4----------------------------------------------|
E|--3-----5-----0------------------------------------------------|

3:34 Glow...
e|---------------------------------------------------------------|
B|---------------------------------------------------------------|
G|---------------------------------------------------------------|
D|-2------5------7------9-9--9-9--9------------------------------|
A|-2x16---5x16---7x16---9-9--9-9--9------------------------------|
E|-0------3------5------5-5--5-5--5------------------------------|
 PM-------------------

3:47 Solo 3
e|--------------------------15-14--12--------/19-19-17-15-17-----|
B|-12----------12----------------14---12--12---------------------|
G|--------------------------------------14-----------------------|
D|---14-12-14----14-12-14----------------------------------------|
A|---------------------------------------------------------------|
E|---------------------------------------------------------------|

e|--------------------------------------------------15--15-15-14-12--|
B|-12----------12---------------------------------15--15-----------15|
G|------------------------12-12-12-12-14-14-14-14--------------------|
D|---14-12-14----14-12-14--------------------------------------------|
A|-------------------------------------------------------------------|
E|-------------------------------------------------------------------|

e|---------------------------------------------------------------|
B|-12----------12------------------------------------------------|
G|---------------------------------12-h13-h14--------------------|
D|---14-12-14----14-12--12-h13-h14-------------------------------|
A|---------------------------------------------------------------|
E|---------------------------------------------------------------|

e|---------------------------------------------------------------|
B|-12---------12----------------12---------12--------------------|
G|---------------------------------------------------------------|
D|---14-12-14---14-12--15-14-12---14-12-14---14-12-14-12---------|
A|---------------------------------------------------------------|
E|---------------------------------------------------------------|

e|---------------------------------------------------------------|
B|---------------------------------------------------------------|
G|--------------------14-14-12--11-11-12-9-----------------------|
D|-14-14-12--14-14-12--------------------------------------------|
A|---------------------------------------------------------------|
E|---------------------------------------------------------------|

| /  slide up
| \  slide down
| h  hammer-on
| p  pull-off
| ~  vibrato
| +  harmonic
| x  Mute note
| b  Bend
| PM Palm Mute



************************************

| x   Dead note
| PM  Palm mute
| /   Slide up
| b   Bend
| h   Hammer-on

************************************

            
            
Suggest correction
Creating personal tab
Creating personal tab
You can edit any tab online and save it as your Personal.

You can edit, replace or remove any tab part or add personal notes – all changes will be seen only by you.

Personal tabs can be accessed anytime from any device, even offline.
Learn more »
Give kudos to tab author, rate the tab!
1 2 3 4 5
comments
print report bad tab
guest
You may want to rate the tab now too:
select rating
Wanna post a correction for this tab? Suggest correction