Oops, an error
Loading. Please wait.

The Strays bass

version 1
version 1

Whole song

Interactive

by Area 11
2,535 views 1 this week
4 commentsread comments
1 2 3 4 5
x 4
add to favorites
×
Save as Personal and add changes to this tab that will be seen only by you. Learn more ›
×
You can save this tab as Personal to edit and correct it or add notes. All changes will be seen only by you. Learn more »
launch autoscroll
font size
0
reset
guitar tuner
edit
Autoscroll
slow
fast
+/-
esc
set tempo
stop
Author
Difficulty
READ BEFORE PLAYING IMPORTANT NEWS:
Area 11 The Strays bass tab, Done by figuring out what this guy had come up with and
posted through tabs and YouTube cover videos. I guarantee this is 100% correct or Maybe
even 100% correct. Even Kogie commented on the video using his account kidnfnty and said 
he was impressed video by: FergusPateman
translated into tabs(since Fergus didnt have time to put it into tabs and I was bored
one day)video link here: http://www.youtube.com/watch?v=JnrRt-y9YzA
KEY:
h=hammer on p=pull off /=slide down \=slide up x 3(for example)=repeat this number of times
Intro:
G|---------------------------------------------------------------|
D|-----------------------------------------------12-14-12-11-----|
A|-2-2-2---2-4-4-5-5------5-4-4-5-4-2-2-4-5-7-9-10-------------12|
E|------------------3-3-3----------------------------------------|

G|---------------------------------------------------------------|
D|-9-9-9-9-11-11-11-11-12-12-12-12-14-14-14-14-14-14-14-14-12-12-|
A|---------------------------------------------------------------|
E|---------------------------------------------------------------|

G|---------------------------------------------------------------|
D|-12-12-11-11-11-11-9-9-9-9\3-----------------------------|-----|
A|----------------------------play the tens short and long V-----|
E|-----------------------------3-3-3-3-5-5-5-5-7-7-7-7-10-10-10--|

G|---------------------------------------------------------------|
D|--------------------------------9-9-9-9-9-9-9-9-11-11-11-11-11-|
A|---------------------------------------------------------------|
E|-3-3-3-3-5-5-5-5-7-7-7-7-5-5-5-5-------------------------------|

G|------------------11\2-----------------------------------------|
D|-11-11-11-14-14-14---------------------------------------------|
A|---------------------------------------------------------------|
E|------------------------------3-3-3-3-5-5-5-5-7-7-7-7-5p3-2-2-2|

G|-----------------|
D|-----------------|
A|-----------------|
E|-2-2-2-5-5-5-5---|


Preverse1/Constant riff
G|-----------------------------------------------------------------|
D|-----------------------------------------------------------------|
A|2-4-5---4-5----------------5-5-5-5---------2-2-2-2-2-4-5---------|
E|------5-----2-2-2-2-3-3-3-3--------5-5-5-5--------------5-5-5-5-5|

G|-----------------------------------|
D|-----------------------------------|
A|-4-5----------------5-5-5-5--------|
E|----2-2-2-2-3-3-3-3--------5-5-5-5-|

Verse:
G|------------------------------------------|
D|------------------------------------------|
A|-2-----------5---2-------5----0-0-1h2-----|
E|--------3-----5-------------3-------------|

BRIDGE:
G|------------------------------------------7---7-----------------|
D|--------4-2-4-2-0-2-0-3-----------------7----7------------------|
A|2-2-2-2-----------------0---------5-5-5----0---2-2-2-2-2-4-5----|
E|--------------------------3-3-3-3--3------------------------5-5-|

G|------------------------------------------|
D|------------------------------------------|
A|------4-5-----------------5-5-5-5---------|
E|5-5-5-----2-2-2-2-3-3-3-3--------5-5-5-5--|


Chorus:
G|------------------------------------------7---------------------|
D|-------------------------------------------7----------7-7-------|
A|--------------------7-7-7-7-7p5-5-5-5-5-5---5----------7--------|
E|-7-7-7-7-7-7-7-7-7---------------------------5-5-5-5-5----------|

G|--------------------------7-7-7-7-9-7------7h9-11-9-7-----------|
D|------------7----------7h9-----------9-7h9----------------------|
A|---------7h9-9------7h9-----------------------------------------|
E|-7-7-7-7-------7-7-7--------------------------------------------|



G|------------------------------------------7---------------------|
D|-------------------------------------------7-----------7-7------|
A|--------------------7-7-7-7-7p5-5-5-5-5-5---5-----------7-------|
E|-7-7-7-7-7-7-7-7-7---------------------------5-5-5-5-5----------|

G|-----------------------------7-7-7-7-9-7--------9-7-------------|
D|------------7------------7h9------------7-7-7-7----9/3----------|
A|---------7h9-9--------7h9---------------------------------------|
E|-7-7-7-7--------7-7-7-------------------------------------------|

Constant riff/Preverse2/solo on guitar:
G|----------------------------------------------------------------|
D|----------------------------------------------------------------|
A|-2-2-2-2-2-4-5---------4-5----------------5-5-5-5---------------| X 3
E|--------------5-5-5-5-5---2-2-2-2-3-3-3-3--------5-5-5-5--------|
Verse:
G|------------------------------------------|
D|------------------------------------------|
A|-2-----------5---2-------5----0-0-1h2-----|
E|--------3-----5-------------3-------------|

BRIDGE:
G|------------------------------------------7---7-----------------|
D|--------4-2-4-2-0-2-0-3-----------------7----7------------------|
A|2-2-2-2-----------------0---------5-5-5----0---2-2-2-2-2-4-5----|
E|--------------------------3-3-3-3--3------------------------5-5-|

G|------------------------------------------|
D|------------------------------------------|
A|------4-5-----------------5-5-5-5---------|
E|5-5-5-----2-2-2-2-3-3-3-3--------5-5-5-5--|


Chorus:
G|------------------------------------------7---------------------|
D|-------------------------------------------7----------7-7-------|
A|--------------------7-7-7-7-7p5-5-5-5-5-5---5----------7--------|
E|-7-7-7-7-7-7-7-7-7---------------------------5-5-5-5-5----------|

G|--------------------------7-7-7-7-9-7------7h9-11-9-7-----------|
D|------------7----------7h9-----------9-7h9----------------------|
A|---------7h9-9------7h9-----------------------------------------|
E|-7-7-7-7-------7-7-7--------------------------------------------|



G|------------------------------------------7---------------------|
D|-------------------------------------------7-----------7-7------|
A|--------------------7-7-7-7-7p5-5-5-5-5-5---5-----------7-------|
E|-7-7-7-7-7-7-7-7-7---------------------------5-5-5-5-5----------|

G|-----------------------------7-7-7-7-9-7--------9-7-------------|
D|------------7------------7h9------------7-7-7-7----9/3----------|
A|---------7h9-9--------7h9---------------------------------------|
E|-7-7-7-7--------7-7-7-------------------------------------------|

After chorus/ Constant riff again with new ending:
G|----------------------------------------------------------------|
D|----------------------------------------------------------------|
A|-2-2-2-2-2-4-5---------4-5----------------5-5-5-5---------------|
E|--------------5-5-5-5-5---2-2-2-2-3-3-3-3--------5-5-5-5--------|

G|-------------------------------------------------|
D|-------------------------------------------------|
A|-2-2-2-2-2-4-5---------4-5-----------------------|
E|--------------5-5-5-5-5---0-0-0-0-2-2-2-2-3-3-3-3|

DO YOU REMEMBER WHEN THE STARS WERE MUCH HIGHER:
G|----------------------------------------------------------------|
D|----------------------------------------------------------------|
A|--5--------------------7----------------------------------------|
E|--------------5----------------3-3-3-3-3-3-3-3-3-3-3-3----------|

G|----------------------------------------------------------------|
D|-----7-5-4----7-5-4-----9-7-5/3---------------------------------|
A|--5-------------------7-----------------------------------------|
E|-----------5-------------------3-3-3-3-3-3-3-3-3-3-3------------|



Back to the constant riff:
G|----------------------------------------------------------------|
D|----------------------------------------------------------------|
A|-2-2-2-2-2-4-5---------4-5----------------5-5-5-5---------------|X 5
E|--------------5-5-5-5-5---2-2-2-2-3-3-3-3--------5-5-5-5--------|

Outro/Last Chorus except you pause in the beginning and pick up on 7A sting:

G|------------------------------------------7---------------------|
D|-------------------------------------------7----------7-7-------|
A|--------------------7-7-7-7-7p5-5-5-5-5-5---5----------7--------|
E|-R-e-s-t-i-n-g---------------------5-5-5-5-5--------------------|

G|--------------------------7-7-7-7-9-7------7h9-11-9-7-----------|
D|------------7----------7h9-----------9-7h9----------------------|
A|---------7h9-9------7h9-----------------------------------------|
E|-7-7-7-7-------7-7-7--------------------------------------------|



G|------------------------------------------7---------------------|
D|-------------------------------------------7-----------7-7------|
A|--------------------7-7-7-7-7p5-5-5-5-5-5---5-----------7-------|
E|-7-7-7-7-7-7-7-7-7---------------------------5-5-5-5-5----------|

G|-----------------------------7-7-7-7-9-7------------------------|
D|------------7------------7h9-------------7--------9-------------|
A|---------7h9-9--------7h9---------------------------------------|
E|-7-7-7-7--------7-7-7-------------------------------------------|
Suggest correction
Creating personal tab
Creating personal tab
You can edit any tab online and save it as your Personal.

You can edit, replace or remove any tab part or add personal notes – all changes will be seen only by you.

Personal tabs can be accessed anytime from any device, even offline.
Learn more »
comments
print report bad tab
4 comments total. Showing first comments.
0 reply
robert.bara.33 31 May 17, 2013 01:16 PM

IMPORTANT FORGOT TO PUT SOMETHING IN THE TABS
Just relized something when i was making this tab at Constant riff/Preverse2/solo on guitar: after you play the 000022223333 on the A string
Play 5 on the A string sorry bout that

0 reply
robert.bara.33 31 May 17, 2013 01:18 PM

After chorus/ Constant riff again with new ending:
G|----------------------------------------------------------------|
D|----------------------------------------------------------------|
A|-2-2-2-2-2-4-5---------4-5----------------5-5-5-5---------------|
E|--------------5-5-5-5-5---2-2-2-2-3-3-3-3--------5-5-5-5--------|

G|---------------------------------------------------------
D|---------------------------------------------------------
A|-2-2-2-2-2-4-5---------4-5-------------------------------
E|--------------5-5-5-5-5---0-0-0-0-2-2-2-2-3-3-3-3-5-5-5-5
THIS PART I MEANT SORRY BOUT THAT CRAP

0 reply
robert.bara.33 31 May 17, 2013 01:18 PM

After chorus/ Constant riff again with new ending:
G|----------------------------------------------------------------|
D|----------------------------------------------------------------|
A|-2-2-2-2-2-4-5---------4-5----------------5-5-5-5---------------|
E|--------------5-5-5-5-5---2-2-2-2-3-3-3-3--------5-5-5-5--------|

G|---------------------------------------------------------
D|---------------------------------------------------------
A|-2-2-2-2-2-4-5---------4-5-------------------------------
E|--------------5-5-5-5-5---0-0-0-0-2-2-2-2-3-3-3-3-5-5-5-5
THIS PART I MEANT SORRY BOUT THAT CRAP

guest
You may want to rate the tab now too:
select rating
Wanna post a correction for this tab? Suggest correction