Oops, an error
Loading. Please wait.

Tokyo House Party Bass Tab

3,606 views 3 this week
4 commentsread comments
1 2 3 4 5
accurate
x 5
add to favorites
launch autoscroll
font size
0
reset
guitar tuner
Tab Pro tools
  • play this tab
  • loop segment
  • change instrument
  • show fretboard
  • metronome
×
Best way to learn
"Tokyo House Party"
Autoscroll
slow
fast
+/-
esc
set tempo
stop
Contributor
Title: Tokyo House Part
Artist: Area 11
Album: All The Lights In The Sky
Track No.: 5

In my opinion as a bassist one of the stand out tracks of the album. Hits my 
choice of one of my favorite songs at this moment. The bassline is 
distinctive yet simple and Kogie uses constant improvisation in this song to 
spice things up. I have tried to replicate to my best ability. I advise a 
clean setting until the outro/breakdown where a distortion must be used to 
sound anything like the recording.

Area 11 is a British band from Bristol. They have a big twist, however, they 
have a love of anime. The band sing about popular anime's while combing 
different elements of different genres including the Eastern music and 
Western music cultures. For example Tokyo House Party twists from a Rock song 
to a Electro soundtrack to a distortion based breakdown. Many know Area 11 
for Sparkles* (lead singer) appearance with the internet superstars the 
YogsCast (British comedy duo) and the use of their music (Vectors track 2 
ending) for outing the videos. A recent single of theirs includes Minecraft 
Christmas which features Simon Lane of the YogsCast and which video has all 
the members of this internet monopoly. The members to date include: Sparkles* 
(singer/keytarist), Parv (guitarist), Kogie (bassist) and Leo (drummer).

Tuning: Standard (EADG)

Credit should be given to:
- Jack Wilburn - recent chords upload helped with the chorus.
- Myself - CurtR95

Watch my YouTube cover here:
http://www.youtube.com/watch?v=HUO4yBivlwYac


Intro:

|------------------|
|---------------1--|
|333-3333-3333-1-3-| x4
|------------------|



Verse:

|------------------|
|---------------1--|
|333-3333-3333-1-3-| x2
|------------------|

|------------------|
|------------------|
|111-1111-1111-111-|
|------------------|

|------------------|
|------------------|
|------------------|
|444-4444-3333-333-|



Pre Chorus:

|--------------------|
|1111-3333-----------|
|----------3333------| x2
|---------------4444-|

|---------1h3------------|
|1111-1111---3-----------|
|--------------3333------|
|-------------------3-4--|

|----1h3------1h3----------------|
|1111---3-1111---3-----3h5-------|
|------------------3333---5------|
|---------------------------3-4--|



Chorus:

|-----------3p1------------|
|-------1111---3-----------|
|----1h3--------1111---3311|
|4444----------------------|

|----------------------|
|-----1111-------------|
|----------111111111111|
|4444------------------|

|-----------3p1-----------|
|-------1111---3----------|
|----1h3--------1111--3311|
|4444---------------------|

|----------------------|
|-----1111-------------|
|----------111111111111|
|4444------------------|



Post Chorus 1:

|------------|
|------------|
|------------|
|-44443333~--|



Post Chorus 2/Bridge:

|------------------|
|-1~----------53---|
|---3~----------53-| x3
|--------3~4~-----3|

|------------------|
|-1----------------|
|---------------3~-|
|---111-444-333----|



Outro/Breakdown:

|-----------------|    |-----------------|
|-----111---------| OR |-----------------|
|-333-----111-----|    |-----666---------|
|-------------444-|    |-888-----666-444-|



Song Order:
Intro
Verse
Pre Chorus
Chorus
Post Chorus 1
Verse
Pre Chorus
Chorus
Post Chorus 2/Bridge
Break
Outro/Breakdown
comments
print report bad tab
4 comments total. Showing first comments.
+1 reply
kscjr wrote on March 4 2013, 10:18 am

Thank you so much! I was looking for a tab of this a while ago but i had given up hope. I decided to check today on a whim and what do I find? Thanks again.

+1 reply
CurtR95 wrote on March 5 2013, 11:35 am

Thinking about doing a bass tab for minecraft Christmas, shi no barado or euphemia want to know what you want.

+1 reply
kscjr wrote on March 9 2013, 01:37 pm

Any of them would be fantastic in my opinion :D

I want to post or [tab]
guest
You may want to rate the tab now too:
select rating
Please do not post tabs as comments. Select "correction" instead!