Oops, an error
Loading. Please wait.

Vectors Bass Tab

2,050 views 1 this week
no commentswrite comment
1 2 3 4 5
excellent!
x 5
add to favorites
launch autoscroll
font size
0
reset
guitar tuner
Autoscroll
slow
fast
+/-
esc
set tempo
stop
Help us to improve Ultimate-Guitar.com Take our survey!
×
Author
Difficulty
CurtR95 335
novice
Title: Vectors
Artist: Area 11
Album: All The Lights In The Sky
Track No.: 2

This track is the epitome of the band in my opinion. If I had to show
someone one track of this band to define their music style this would be my
go to track. It has a individual bass line, a techno filled riff and a
massively impulsive in your face solo, as well of course Spakles* screaming
at the top of his voice.

Area 11 is a British band from Bristol. They have a big twist, however, they
have a love of anime. The band sing about popular anime's while combing
different elements of different genres including the Eastern music and
Western music cultures. For example Tokyo House Party twists from a Rock song
to a Electro soundtrack to a distortion based breakdown. Many know Area 11
for Sparkles* (lead singer) appearance with the internet superstars the
YogsCast (British comedy duo) and the use of their music (Vectors track 2
ending) for outing the videos. A recent single of theirs includes Minecraft
Christmas which features Simon Lane of the YogsCast and which video has all
the members of this internet monopoly. The members to date include: Sparkles*
(singer/keytarist), Parv (guitarist), Kogie (bassist) and Leo (drummer).

Tuning: Standard (EADG)

Intro:

|----|
|----|
|----|
|-2--|

|--------|
|--------|
|--------|
|-2222---|

|------------------------------|
|------------------------------|
|-----5555-7777-99-7-5-4-2-0---|
|2222------------------------2-|

|--------------|
|--------------|
|--------------|
|-2-2-2-2-2222-|

|---------------------------------------|
|---------------------------------------|
|--------------5555-7777-99-7-5-4-2-0---|
|-2-2-2-2-2222------------------------2-|

|---------------------------------------|
|---------------------------------------|
|---------------------------------------|
|-2-2-2-2-2-2-222222-2-2-2-2-2-2-222222-|


Verse 1:

|------------|
|------------|
|----5~--7~--|
|2~----------|

|-------------------|
|-------------------|
|-------------------|
|1010-9-7-6-4-2-0h2-|

|------------|
|------------|
|----5~--7~--|
|2~----------|

|-------------------|
|-------------------|
|-------------------|
|1010-9-7-6-4-2-0h2-|


Pre Chorus:

|--------------------------|
|--------------------------|
|--------------------------|
|2-2-2--22-2-2-2--22-2-2-2-|

|--------|
|--------|
|5-4-2-0-|
|--------|

|--------------------------|
|--------------------------|
|--------------------------|
|2-2-2--22-2-2-2--22-2-2-2-|

|--------|
|--------|
|5-4-2-0-|
|--------|

|-------------------------|
|-------------------------|
|-5-5-5-5-5-5-5-5-7-7-7-7-|
|-------------------------|


Chorus:

|----------------|
|----------------|
|9~--9~--5~------|
|------------7~--|

|------------------|
|------------------|
|9~--9~--5~--7-7-7-|
|------------------|

|----------------------------|
|----------------------------|
|-5-5-5-5-5-5-55-5-77777777--| x2
|----------------------------|

Post Chorus:

|--------------|
|--------------|
|--------------|
|-2-2-2-2-2222-|

|---------------------------------------|
|---------------------------------------|
|--------------5555-7777-99-7-5-4-2-0---|
|-2-2-2-2-2222------------------------2-|

Verse 2:

|------------|
|------------|
|----5~--7~--|
|2~----------|

|-------------------|
|-------------------|
|-------------------|
|1010-9-7-6-4-2-0h2-|

|------------------------|
|------------------------|
|--------555555557777777-|
|22222222----------------|

|-------------------|
|-------------------|
|-------------------|
|1010-9-7-6-4-2-0h2-|


Pre Chorus:

|--------------------------|
|--------------------------|
|--------------------------|
|2-2-2--22-2-2-2--22-2-2-2-|

|--------|
|--------|
|5-4-2-0-|
|--------|

|--------------------------|
|--------------------------|
|--------------------------|
|2-2-2--22-2-2-2--22-2-2-2-|

|--------|
|--------|
|5-4-2-0-|
|--------|

|-------------------------|
|-------------------------|
|-5-5-5-5-5-5-5-5-7-7-7-7-|
|-------------------------|


Chorus:

|----------------|
|----------------|
|9~--9~--5~------|
|------------7~--|

|------------------|
|------------------|
|9~--9~--5~--7-7-7-|
|------------------|

|-----------------------------|
|-----------------------------|
|-5-5-5-5-5-5-55-5-7777-7777--| x2
|-----------------------------|

Solo/Breakdown:

|---------------|
|---------------|
|---------------| x3
|-2-2-2-2-2222--|

|----------------------------------|
|----------------------------------|
|--------------5555-7777-5555-7777-|
|-2-2-2-2-2222---------------------|

REST

|----|
|----|
|420-|
|---2|

|--------|
|--------|
|--------| x2
|00000000|


Last Chorus:

|----------------|
|----------------|
|9~--9~--5~------|
|------------7~--|

|------------------|
|------------------|
|9~--9~--5~--7-7-7-|
|------------------|

|-----------------|
|-----------------|
|999999995555-----|
|------------7777-|

|------------------|
|------------------|
|999999999555577777|
|------------------|

Outro:

|---------|
|---------|
|---------| x7
|-2-22-22-|

|----------|
|----------|
|----------|
|-2-22-22~-|

|-------|
|-------|
|420420-|
|------2|


Euphemia Intro:

TURN OFF DISTORTION

|----------------|
|----------------|
|----3~------5~--| x4
|0~------3~------|

READD DISTORTION

|----------------------------------|
|----------------------------------|
|--------33333333--------55555555--| x2
|00000000--------33333333----------|
Suggest correction
What's this?
You can suggest a correction to this tab. Community and Mods will review your correction and vote to approve or reject it.
comments
print report bad tab
guest
You may want to rate the tab now too:
select rating
Please do not post tabs as comments. Select "correction" instead!