Oops, an error
Loading. Please wait.

Unsung Hero Chords

1 view 1 this week
no commentswrite comment
1 2 3 4 5
3 more votes to show rating
add to favorites
launch autoscroll
font size
0
reset
transpose
0
reset
display chords
guitar tuner
Autoscroll
slow
fast
+/-
esc
set tempo
stop
Help us to improve Ultimate-Guitar.com Take our survey!
×
Author
Difficulty
intermediate
[Intro]
   G             D           C
e|-------------------------------|
B|-------------------------------|
G|---------------4---------------|
D|-5------5---------7--5--7--5---|
A|----7-5----7-5-----------------|
E|-------------------------------|

   G             D           C  B  A  G
e|-------------------------------|
B|-------------------------------|
G|---------------4---------------|
D|-5------5---------7--5--7--5---|
A|----7-5----7-5-----------------|
E|-------------------------------|

First 2 lines in each verse played 2x
   Am                              G             D
e|-----------------------------------------------------------------|
B|-----------------------------------------------------------------|
G|-------------------------------------------------------2-------2-|
D|-------2-------2-------2-------2-------0-------0-0-0-4---0-0-4---|
A|-0-0-3---0-0-3---0-0-3---0-0-3-------2-------2-------------------|
E|---------------------------------3-3-----3-3---------------------|

Last 2 lines in each verse played 2x
   Am                            G              D
e|-------------------------------------------------------------|
B|-------------------------------------------------------------|
G|----------------------------------------------7--------------|
D|-7--------------7--------------5--------------7--7-7-7-7-7-7-|
A|-7--7-7-7-7-7-7-7--7-7-7-7-7-7-5--5-5-5-5-5-5-5--5-5-5-5-5-5-|
E|-5--5-5-5-5-5-5-5--5-5-5-5-5-5-3--3-3-3-3-3-3----------------|

[Verse 1]
Am                                  G       D
  No one told me life could be like this
Am                                G         D
  Now I know that Hell on Earth exists
Am                                 G        D
  You'll never know what I've been through
Am                              G         D
  This living nightmare would destroy you too

[Pre Chorus 1]
Em         Bm             Am                 D    D#
  And if I had a choice I know where I would be
Em              Bm           Am                D
  This world of suffering is not the place for me

[Chorus]
G                      D
I never ask to be an unsung hero
C                      G
I never wanted to be a part of history
G                        D
I never asked to have my life turned into chaos
C                      B      A  G
I never wanted this to happen to me

[Verse 2]
Am                              G          D
  Why have they done this to my life?
Am                                   G     D
  Sent to death without committing a crime
Am                          G              D
  Another friend lost every day
Am                                G              D
  The cost is growing but there's no one left to pay

[Pre Chorus 2]
Em         Bm                 Am               D  D#
  And if I had the chance I'd try to save them all
Em             Bm          Am              D
  But all that I can do is try to win this war

[Chorus]
G                      D
I never ask to be an unsung hero
C                      G
I never wanted to be a part of history
G                        D
I never asked to have my life turned into chaos
C                      B      A  G
I never wanted this to happen to me

[Solo]
e|--15-15---15-15--15---14-14---14-14--14--|
B|--15-15---15-15--15---15-15---15-15--15--|
G|-----------------------------------------|
D|-----------------------------------------|
A|-----------------------------------------|
E|-----------------------------------------|

e|--12-12---12-12--12---15-15---15--14-14--14--|
B|--13-13---13-13--13---15-15---15--15-15--15--|
G|---------------------------------------------|
D|---------------------------------------------|
A|---------------------------------------------|
E|---------------------------------------------|

e|--15-15---15-15--15---14-14---14-14--14--|
B|--15-15---15-15--15---15-15---15-15--15--|
G|-----------------------------------------|
D|-----------------------------------------|
A|-----------------------------------------|
E|-----------------------------------------|

e|--12-12---12-12--12--------------|
B|--13-13---13-13--13---12--10--8--|
G|----------------------11--9---7--|
D|---------------------------------|
A|---------------------------------|
E|---------------------------------|

[Verse 3]
Am                                 G       D
  Years have passed but I'm still around
Am                                  G      D
  I've defied the odds and the body count
Am                          G              D
  The end can't be too far away
Am                            G             D
  We're getting closer day by day by day by day

[Pre Chorus 3]
Em         Bm               Am            D  D#
  And if I had a choice I'd end it right away
Em             Bm                  Am          D
  The sense of futility is getting worse every day

[Chorus] 2x
G                      D
I never ask to be an unsung hero
C                      G
I never wanted to be a part of history
G                        D
I never asked to have my life turned into chaos
C                      B      A  G
I never wanted this to happen to me
Suggest correction
Give kudos to tab author, rate the tab!
1 2 3 4 5
comments
print report bad tab
guest
You may want to rate the tab now too:
select rating
Wanna post a correction for this tab? Suggest correction