Oops, an error
Loading. Please wait.

In The Blink Of An Eye tab

by Arena
163 views 1 this week
1 commentread comment
1 2 3 4 5
x 4
add to favorites
×
Save as Personal and add changes to this tab that will be seen only by you. Learn more ›
×
You can save this tab as Personal to edit and correct it or add notes. All changes will be seen only by you. Learn more »
launch autoscroll
font size
0
reset
how to read this tab
guitar tuner
edit
Autoscroll
slow
fast
+/-
esc
set tempo
stop
Author
Difficulty
                                          Artist - Arena
                                         ****************
                                   Song - In The Blink Of An Eye
                                  *******************************
                                        Album - The Visitor
                                       *********************
                                       Tabbed By - Ayreon77
                                      **********************



INTRO
******
  Em F   G   F    Em F   G   F      Em     F   G   F    Em     F   G   F
[----------------|----------------|-------------------|--------------------]
[----------------|----------------|-------------------|--------------------]
[-9--10--12--10--|-9--10--12--10--|-9-9-9--10--12--10-|-9-9-9--10--12--10--]
[-9--10--12--10--|-9--10--12--10--|-9-9-9--10--12--10-|-9-9-9--10--12--10--]
[-7--8---10--8---|-7--8---10--8---|-7-7-7--8---10--8--|-7-7-7--8---10--8---]
[----------------|----------------|-------------------|--------------------]


--------------------------------------------
00:31
MINI SOLO - Em C G  Em Am X2
**********
[--h-------------------------|--h-------------------]
[-8-10-8---------------------|-8-10-8---------------]
[--------9-----7-9----7------|--------9----7-9------]
[----------10------10---7-10-|----------10-----10-7-]
[----------------------------|----------------------]
[----------------------------|----------------------]


[--------------------------|--h-------------------]
[-10-8---------------------|-8-10-8---------------]
[------9-----7-9----7------|--------9----7-9------]
[--------10------10---7-10-|----------10-----10-7-]
[--------------------------|----------------------]
[--------------------------|----------------------]


--------------------------------------------
VERSE 1
********
Bb                 C#
Why should all the wise survive
     Bb                     F
When nothing is what it may seem
Ab             D#m
Why do all the living die
     Ab             D#m
When only the dying remain
Bb               F      C#
Helpless are the broken wishes
Bb     F        Bb     F
Dashed upon the window pane


--------------------------------------------
01:09
MINI SOLO - Em C G  Em Am X2
**********
[--h-------------------------|--h-------------------]
[-8-10-8---------------------|-8-10-8---------------]
[--------9-----7-9----7------|--------9----7-9------]
[----------10------10---7-10-|----------10-----10-7-]
[----------------------------|----------------------]
[----------------------------|----------------------]


[--h-------------------------|--h-------------------]
[-8-10-8---------------------|-8-10-8---------------]
[--------9-----7-9----7------|--------9----7-9------]
[----------10------10---7-10-|----------10-----10-7-]
[----------------------------|----------------------]
[----------------------------|----------------------]


--------------------------------------------
01:25
GRUNGY MUTED NOTES 
*******************
[------------------------------------------------------------------------]
[------------------------------------------------------------------------]
[------------------------------------------------------------------------]
[------------------------------------------------------------------------]
[---------3-3-----5-5-3-3-----3-3--1-1----------5-5-----5-5------7-7-----]
[-5-5-0-0-----5-5---------5-5----------3-3--5-5-----3-3-----5-5------7-7-]


[-------------------------------------------------]
[-------------------------------------------------]
[-------------------------------------------------]
[-5-5---------------------------------------------]
[-----5-5--3-3-----3-3--1-1----------3-3--4-4-----]
[--------------5-5----------3-3--5-5----------2-2-]


--------------------------------------------
VERSE 2
********
Bb          F
Do you hide away from me
        Bb                      C#
There's nothing here you should ignore
Ab                D#m
Do you close your eyes on me
Ab                            D#m
You've made that mistake once before
Bb               F         C#
Helpless are the shattered wishes
Bb     F        Bb     F         
Dashed upon the window pane


--------------------------------------------
(PLAY MINI SOLO WITH CHORUS BELOW)
CHORUS
*******
Am  Em             C        G
 So close! But I'm one step ahead
   Em        Am
My shadow is all you will touch
C    Em        F          G
 Too late! You waited too long
Em
I stole the freedom
    Am
You needed so much


--------------------------------------------
02:17
KEYBOARD SOLO - PLAY THIS GUITAR BELOW WITH KEYBOARD SOLO
**************
[----------------|---------|-------------------|-----------|-----------]
[----------------|---------|-------------------|-----------|-----------]
[----------------|---------|-------------------|-----------|-----------]
[----------------|---------|-------------------|-----------|-----------]
[-0-0--0-3-2-0-0-|---------|-0-0--0-3-2-0-0--s-|-0-3-2-0-0-|-0-3-2-0-0-]
[----------------|-0-3-0-3-|----------------5\-|-----------|-----------]


[---------|----------------|----------|------------------------------------]
[---------|----------------|----------|------------------------------------]
[---------|----------------|----------|------------------------------------]
[---------|----------------|--------0-|5-3-3--0--5-3-3--0--5-3-3--0--5-3-3-]
[---------|-0-0--0-3-2-0-0-|----0-3---|------------------------------------]
[-0-3-0-3-|----------------|0-3-------|------------------------------------]


[----------------|---------|-------------------|-----------|-----------]
[----------------|---------|-------------------|-----------|-----------]
[----------------|---------|-------------------|-----------|-----------]
[----------------|---------|-------------------|-----------|-----------]
[-0-0--0-3-2-0-0-|---------|-0-0--0-3-2-0-0--s-|-0-3-2-0-0-|-0-3-2-0-0-]
[----------------|-0-3-0-3-|----------------5\-|-----------|-----------]


[---------|----------------|----------|----------------------------]
[---------|----------------|----------|--------8-6-----------------]
[---------|----------------|----------|--------8-6-----------------]
[---------|----------------|--------0-|-5-3-3--8-6-5-3-3--5-3--6-5-]
[---------|-0-0--0-3-2-0-0-|----0-3---|--------6-4-----------------]
[-0-3-0-3-|----------------|0-3-------|----------------------------]


--------------------------------------------
GUITAR SOLO
************
 Guitar 1
[---------------|--------------|-----------------|--------------]
[-----h---------|-----h--------|-------h---------|-----h--------]
[-9--5-7-5------|-9--5-7-5-----|-7-9--5-7-5------|-9--5-7-5-----]
[----------5-7--|----------5---|------------5-7--|----------5---]
[---------------|------------7-|-----------------|------------7-]
[---------------|--------------|-----------------|--------------]
|                                                               |
|Guitar 2                                                       |
[---8-10-8-----s|---8-10-8-----|-----8-10-8-----s|---8-10-8-----]
[----------8-10\|s---------8---|------------8-10\|----------8---]
[---------------|\9----------9-|-7-9-------------|-9----------9-]
[---------------|--------------|-----------------|--------------]
[---------------|--------------|-----------------|--------------]
[---------------|--------------|-----------------|--------------]


[-------6-4------------------]
[----------------------------]
[----------------------------]
[-5-3-3------5-3-3--5-3--6-5-]
[----------------------------]
[----------------------------]


--------------------------------------------
03:29
GRUNGY MUTED NOTES 
*******************
[------------------------------------------------------------------------]
[------------------------------------------------------------------------]
[------------------------------------------------------------------------]
[------------------------------------------------------------------------]
[---------3-3-----5-5-3-3-----3-3--1-1----------5-5-----5-5------7-7-----]
[-5-5-0-0-----5-5---------5-5----------3-3--5-5-----3-3-----5-5------7-7-]


[-------------------------------------------------]
[-------------------------------------------------]
[-------------------------------------------------]
[-5-5---------------------------------------------]
[-----5-5--3-3-----3-3--1-1----------3-3--4-4-----]
[--------------5-5----------3-3--5-5----------2-2-]


--------------------------------------------
BRIDGE
*******
Bb          C
Search far, search wide
Bb                  F        
Lying down is not a matter of pride
Ab         D#m
Look hard, look deep
Ab                     D#m
Never try to take this line of retreat
Bb            Ab                 Bb   F    Bb   Ab
Don't let the bastards grind you down down down down


--------------------------------------------
(PLAY MINI SOLO WITH CHORUS BELOW)
CHORUS
*******
So close! But I'm one step ahead
My shadow is all you will touch
Too late! You waited too long
I stole the freedom you needed so much


  UB UB UB  UB  UB  UB 
04:16
SOLO
[-----------------------------------------------h-----b----------]
[----------------------h-----------h------h---12-13--12-12-------]
[---------h------h---12-14---h---12-14--12-14--------------12----]
[---h---12-14--12-14-------12-14------------------------------14-]
[-12-14----------------------------------------------------------]
[----------------------------------------------------------------]

                                                    
[------------------|--b--br----------------b--b--b-]
[12-13----12-13-15-|-12-12-------12-13-15-15-15-15-]
[------14----------|-------12----------------------]
[------------------|----------14-------------------]
[------------------|-------------------------------]
[------------------|-------------------------------]

   b                                b
[-19-19-15-----------------------|-19-19-15-----------b-]
[----------17--12-13----12-13-15-|----------17-12-13-15-]
[--------------------14----------|----------------------]
[--------------------------------|----------------------]
[--------------------------------|----------------------]
[--------------------------------|----------------------]

(PLAY MINI SOLO WITH CHORUS BELOW)
CHORUS
*******
So close! But I'm one step ahead
My shadow is all you will touch
Too late! You waited too long
I stole the freedom
I know that you needed so much

--------------------------------------------
  UB UB UB  UB  UB  UB   UB UB UB  UB  UB  UB   UB UB UB UB
[-12-12-12--13--15--17-|-12-12-12--13--15--17-|-12-13-15-17-]
[-15-15-15--16--18--20-|-15-15-15--16--18--20-|-15-16-18-20-]
[----------------------|----------------------|-------------]
[----------------------|just bend-------------|-------------]
[----------------------|15 up an down---------|-------------]
[----------------------|-here-----------------|-------------]


  UB UB UB  UB  UB  UB   UB s   
[-12-12-12--13--15--17-|-19-\-]
[-15-15-15--16--18--20-|-22-\-]
[----------------------|------]
[----------------------|------]
[----------------------|------]
[----------------------|------]


Enjoy...............

            
            
Suggest correction
Creating personal tab
Creating personal tab
You can edit any tab online and save it as your Personal.

You can edit, replace or remove any tab part or add personal notes – all changes will be seen only by you.

Personal tabs can be accessed anytime from any device, even offline.
Learn more »
comments
print report bad tab
1 comment total.
0 reply
thijsofbodom 10 May 01, 2014 10:20 AM

great tabs, thanks a lot for making this :)

guest
You may want to rate the tab now too:
select rating
Wanna post a correction for this tab? Suggest correction