Oops, an error
Loading. Please wait.

Since Youve Been Gone Bass Tab

1,351 views 1 this week
no commentswrite comment
1 2 3 4 5
please rate
add to favorites
launch autoscroll
font size
0
reset
guitar tuner
Autoscroll
slow
fast
+/-
esc
set tempo
stop
Help us to improve Ultimate-Guitar.com Take our survey!
×
Author
Difficulty
intermediate
Aretha Franklin - Since You've Been Gone
Tabbey by RTBM
Standard Tuning EADG


Verse
G|------------------------------------------------------------------------|
A|------------------------------------------------------------------------|
D|--88-6--666-88-6------88-6--666-88-6------88-6--666-88-6------88-6--666-|
E|-6----9---------9-666-----9---------9-666-----9---------9-666-----9-----|


Bridge
G|----------------------------------------------------------|
A|-6h8-8/10-6h8~ ----6-67868----6-67868----6-67868-----5----|
D|---------------5678-8-----5678-8-----5678-8-----5678------|
E|----------------------------------------------------3-333-|


Chorus
G|--------------------------------------|
A|-----5------5-----5--------3----------|
D|-3-56-3-3-56--3-56-3-3-5566-3-5678-88-|
E|--------------------------------------|


Verse
G|---------------------------------------------------------------------|
A|---------------------------------------------------------------------|
D|----88-6-666-88-6-----88-6-666-88-6-----88-6-666-88-6-----88-6-666---|
E|-666----9--------9-666----9--------9-666----9--------9-666----9------|


Bridge
G|--------------------------------|
A|-88866h8----6-67868----6-67868--|
D|--------5678-8-----5678-8-------|
E|--------------------------------|


Verse
G|---------------------------------------------------------------------|
A|---------------------------------------------------------------------|
D|----88-6-666-88-6-----88-6-666-88-6-----88-6-666-88-6-----88-6-666---|
E|-666----9--------9-666----9--------9-666----9--------9-666----9------|


Bridge
G|----------------------------------------------------|
A|-88866h8-----6-67868----6-67868----6-67868-----5----|
D|---------5678-8-----5678-8-----5678-8-----5678------|
E|----------------------------------------------3-333-|


Chorus
G|--------------------------------------|
A|-----5------5-----5--------3----------|
D|-3-56-3-3-56--3-56-3-3-5566-3-5678-88-|
E|--------------------------------------|


Verse: TILL END!
G|---------------------------------------------------------------------|
A|---------------------------------------------------------------------|
D|----88-6-666-88-6-----88-6-666-88-6-----88-6-666-88-6-----88-6-666---|
E|-666----9--------9-666----9--------9-666----9--------9-666----9------|

Suggest correction
Give kudos to tab author, rate the tab!
1 2 3 4 5
comments
print report bad tab
guest
You may want to rate the tab now too:
select rating
Please do not post tabs as comments. Select "correction" instead!