Oops, an error
Loading. Please wait.

The Weight Tab

version 1
version 1

Whole song

  • Tune your gitar to E. This is the Duane Allman's version.

Interactive

133 views 18 this week
no commentswrite comment
1 2 3 4 5
2 more votes to show rating
add to favorites
launch autoscroll
font size
0
reset
how to read this tab
guitar tuner
Autoscroll
slow
fast
+/-
esc
set tempo
stop
Help us to improve Ultimate-Guitar.com Take our survey!
×
Author
Difficulty
Tuning
intermediate
E B E G# B E
About this tab version
Tune your gitar to E. This is the Duane Allman's version. Was this info helpful? Yes No
Title: The Weight
Artist: Aretha Franklin
Copyright: Kjetil Detlie 2016
Tabber: Kjetil Detlie


I have added the time for the bars so you know when to play it. Use a slide!
This has been tabbed as it is played by Duane Allman

Remember to tune the gitar in E B E G# B E
Comments and feedback are highly appreciated.

        Intro
E |-------------------------------------------------------------------------|
B |----------------------------------4-----6--------------------------------|
G#|-/6-----------------/6-/6------------6----/6------0-----0-----0-----0--2-|
E |-/6--4-----4------6--------6-------------------------1-----1-----1-------|
B |--------6----------------------------------------------------------------|
E |-------------------------------------------------------------------------|

   16s              19s              23s
E |----------------|----------------|--6--6-\4---------4-/6----|
B |----------------|--4-----4-/6----|-----------6--------------|
G#|--6-\4----------|-----6----------|--------------------------|
E |--------6-\4----|----------------|--------------------------|
B |----------------|----------------|--------------------------|
E |----------------|----------------|--------------------------|

   27s              30s           35s
E |----------------|-------------|-----------------------|
B |----------------|-/6----------|-----------------------|
G#|--4-/6----------|----/6-------|-----------------------|
E |--------4-/6----|-------/6----|--4-----4--------/6----|
B |----------------|-------------|----/6----/6-----------|
E |----------------|-------------|-----------------------|

   38s                      40s                         44s
E |-----------------------|--------------------------|---------------------|
B |-----------------------|--------------------------|--/6-----------------|
G#|-/6--------------------|-/6-----------------------|------6-\4----/6--/6-|
E |-----6-\4--------/6----|-----6-\4--------/6-------|-----------6---------|
B |-----------6-----------|-----------6--------------|---------------------|
E |-----------------------|--------------------------|---------------------|

   50s                        58s                     1:03s
E |--------------------------|-----6--4--------/6----|-----6-----/10--6-|
B |--------------------------|-/6--------6-----------|--6-----6---------|
G#|-0-----0----0-----0-----2-|-----------------------|------------------|
E |----1-----1- --1-----1----|-----------------------|------------------|
B |--------------------------|-----------------------|------------------|
E |--------------------------|-----------------------|------------------|

   1:08           1:15                     1:17
E |-------------|-----------------------|--6--6-\4------4-/6----|
B |-/6-/6-------|-----------------------|-----------6-----------|
G#|-------------|-/6--------------------|-----------------------|
E |-------/6----|-----6-\4--------/6----|-----------------------|
B |-------------|-----------6-----------|-----------------------|
E |-------------|-----------------------|-----------------------|

     1:20                    1:23
E |-----------------------|---------------------|
B |-----------------------|---------------------|
G#|-----------------------|-/6------------/7--7-|
E |-/6--6-\4------4-/6----|-----6-\4------------|
B |-----------6-----------|-----------6---------|
E |-----------------------|---------------------|

   1:30                        1:35        1:38
E |---------------------------|----------|----------|
B |--4-----4------/6----------|----------|----------|
G#|-----6-----6------/6-------|-/6-------|-/6-------|
E |---------------------/6----|----/6----|----/6----|
B |---------------------------|----------|----------|
E |---------------------------|----------|----------|

   1:49            1:54            1:57         1:59
E |----6----4-/6--|-------------|-------------|--4----/6----|
B |-/6---6--------|-------------|--4----/6----|-----6-------|
G#|---------------|-------------|-----6-------|-------------|
E |---------------|--4----/6----|-------------|-------------|
B |---------------|-----6-------|-------------|-------------|
E |---------------|-------------|-------------|-------------|

   2:09                          2:21
E |----------------------------|-----7-----7-----/10---|
B |----------------------------|--7-----7--------------|
G#|--1-----1-----1-----1/3-----|-----------------------|
E |-----2-----2-----2----------|-----------------------|
B |----------------------------|-----------------------|
E |----------------------------|-----------------------|

   2:27          2:29             2:32            
E |-------------|-----7-----7----|-----7----/10-----7----|
B |--5----/7----|--7-----7-------|--7-----7--------------|
G#|-----5-------|----------------|-----------------------|
E |-------------|----------------|-----------------------|
B |-------------|----------------|-----------------------|
E |-------------|----------------|-----------------------|

   2:42
E |-7-7-/5------/7----||
B |---------7---------||
G#|-------------------||
E |-------------------||
B |-------------------||
E |-------------------||

As played bye Duane Allman on The Weigh (Aretha Franklin)
Suggest correction
Give kudos to tab author, rate the tab!
1 2 3 4 5
comments
print report bad tab
guest
You may want to rate the tab now too:
select rating
Wanna post a correction for this tab? Suggest correction