Oops, an error
Loading. Please wait.

God Gave Rock And Roll To You tab

by Argent
484 views 18 this week
no commentswrite comment
1 2 3 4 5
1 last vote to show rating
add to favorites
×
Save as Personal and add changes to this tab that will be seen only by you. Learn more ›
×
You can save this tab as Personal to edit and correct it or add notes. All changes will be seen only by you. Learn more »
launch autoscroll
font size
0
reset
how to read this tab
guitar tuner
edit
Autoscroll
slow
fast
+/-
esc
set tempo
stop
Author
Difficulty
Some of the chords used:
   B7/F7   F#m    F#m7/E     F/A
E|----5------5--------5--------1------------|
B|----4------7--------7--------1------------|
G|----4------6--------6--------2------------|
D|----4------4--------4---------------------|
A|-----------x--------x---------------------|
E|-----------x--------0---------------------|

[Intro]
    D     Gm/A#    Bm#5    Cm      Adim/C    A#no5
E|--2------3--------3-------3-------5---------6---------|
B|--3------3--------3-------4-------4---------3---------|
G|--2------3--------4-------5-------5---------3---------|
D|------------------------------------------------------|
A|------------------------------------------------------|
E|------------------------------------------------------| X3
                                
      G     G?     A    A?     G  G  G   G
E|-----------------------------------------------------------|
B|-----------------------------------------------------------|
G|-----------------------------------------------------------|
D|---------------------------------5-----5-------------------|
A|-----------------------------------------------------------|
E|-----3/15--3/15---5/17--5/17---3----3----------------------|

E|--------------------------------------------------------------|
B|---------------------------------------------------3---5--6---|
G|-------------------------------------2---4---5----------------|
D|-----------------------2---3---5------------------------------|
A|----------2---3---5-------------------------------------------|
E|----3--5------------------------------------------------------|

E|---------------------------------------------------------------------------|
B|------8-8---10b--8--10---------------------------8--10---------------------|
G|--/9------9-----------------------5----5---7s/9--------9--7--5---5h7p5-----|
D|-----------------------------5-h7---7--------------------------------------|
A|---------------------------------------------------------------------------|
E|---------------------------------------------------------------------------|

E|-----------------------------------------8-----8--10s/12--15-15--12--10--8h10p8---------|
B|---------------8-------------------8--10----10------------------------------------------|
G|------5--7--5--7bu---7---5----7h-9------------------------------------------------------|
D|---7------------------------------------------------------------------------------------|
A|----------------------------------------------------------------------------------------|
E|----------------------------------------------------------------------------------------|

[Chorus]
C               G
God gave rock and roll to you
Am              G
Gave rock and roll to you
F            A#       C        G
Put it in the soul of everyone    X2

A#
Love your friend and love your neighbour

Love your life and love your labour
            G#                     D#
No it’s never too late to change your mind

A#
Don’t step on snails don’t climb in trees

Loves Cliff Richard but please don’t tease
            G#                     D#   G
it’s never too late to change your mind ahhhhh

[Chorus]
C               G
God gave rock and roll to you
Am              G
Gave rock and roll to you
F            A#       C
Put it in the soul of everyone    X2

A#
If you wanna be a singer or play guitar

Man you’ve gotta sweat it or  won’t get far
            G#                     D#
‘cause it’s never too late to work nine to five

A#
And if you’re young then you’ll never be old

Music will make your dreams unfold
     G#              D#         
How good it feels to be alive       

[Coda]
C, C, C, C,
A#, F, F
C, C, C, C,
A#, F, F,  A B C, C
C C# D

[Break](Lead guitar only)
A      E
F#m    F#m7/E    B7/F#
D    Dm   F/A   A

A               E
God gave rock and roll to you
F#m      F#m7/E      B7/F#
Gave rock and roll to you
D              Dm    F/A   A
Put it in the soul of everyone          X2

Play Intro but Arpeggio fast
E|---------------------------------------------------------------------------|
B|------10-10---12b--10--12------------------------10--12--------------------|
G|--/11------11---------------------7----7---9s/11--------11--9--7---7h9p7---|
D|-----------------------------7-h9---9--------------------------------------|
A|---------------------------------------------------------------------------|
E|---------------------------------------------------------------------------|


E|-----------------------------------------------------------------------10----10---|
B|-----------------10------------------------------------10-10----10--12-----12-----|
G|------7--9--7---9bu---9---7-7--------------7--9/11--------------------------------|
D|---9--------------------------------7-h-9-----------------------------------------|
A|----------------------------------------------------------------------------------|
E|----------------------------------------------------------------------------------|

E|---12bu-17-17-17--12bu-17-12-12-10-12-10-12bupo10-----------10-----------------------------------|
B|--------------------------------------------------12-12---10----13-12-10-------------12----------|
G|-------------------------------------------------------/11------------------12--10-10----10-10---|
D|-------------------------------------------------------------------------------------------------|
A|-------------------------------------------------------------------------------------------------|
E|-------------------------------------------------------------------------------------------------|

E|----------------------------------------------------------------------------------------|
B|-------------------------------------------------------------------10-------------------|
G|--12-10--12BD--12BD-12BD-12BD-12BUPO10---12-10--------------7--9/11---------------------|
D|---------------------------------------12-------12--10-7--9-----------------------------|
A|----------------------------------------------------------------------------------------|
E|----------------------------------------------------------------------------------------|

[Chorus]
D                   A
God gave rock and roll to you
Bm              D
Gave rock and roll to you
G              C      D
Put it in the soul of everyone

            
            
Suggest correction
Creating personal tab
Creating personal tab
You can edit any tab online and save it as your Personal.

You can edit, replace or remove any tab part or add personal notes – all changes will be seen only by you.

Personal tabs can be accessed anytime from any device, even offline.
Learn more »
Give kudos to tab author, rate the tab!
1 2 3 4 5
comments
print report bad tab
guest
You may want to rate the tab now too:
select rating
Wanna post a correction for this tab? Suggest correction