Oops, an error
Loading. Please wait.

Hold Your Head Up tab

version 3
version 3

Whole song

Interactive

by Argent
271 views 3 this week
no commentswrite comment
1 2 3 4 5
2 more votes to show rating
add to favorites
×
Save as Personal and add changes to this tab that will be seen only by you. Learn more ›
×
You can save this tab as Personal to edit and correct it or add notes. All changes will be seen only by you. Learn more »
launch autoscroll
font size
0
reset
how to read this tab
guitar tuner
backing track
0:00
0:00
edit
Autoscroll
slow
fast
+/-
esc
set tempo
stop
HOLD YOUR HEAD UP

As recorded by Argent
(From the 1972 Album ALL TOGETHER NOW)

Words and Music by Rod Argent & Chris White

Transcribed by Slowhand


Gtr I (D A D G B E) - 'Russ Ballard - Electric Guitar / Drop D Tuning: DADGBE'


 Intro
  Q=98
  N.C.
 4/4
  Gtr I (El. Gtr. w/ Drop D Tuning DADGBE / w/ light dist.)
  W          W          W
|----------|----------|------|
|----------|----------|------|
|----------|----------|------|
|----------|----------|------|
|----------|----------|------|
|----------|----------|------|


                                   Dsus4 D
  W          W          W          E E E E +H
|----------|----------|----------|-3-3-3-2-(2)----|
|----------|----------|----------|-3-3-3-3-(3)----|
|----------|----------|----------|-2-2-2-2-(2)----|
|----------|----------|----------|-0-0-0-0-(0)----|
|----------|----------|----------|----------------|
|----------|----------|----------|----------------|


  C/D   Gsus4/D    Dsus4 D     G/DD13    D9
  E E E E +H       E E E E +E  Q  E   Q  q  H
|-3-3-3-3-(3)----|-3-3-3-2-(2)-3--7-|-7--5-------|
|-5-5-5-3-(3)----|-3-3-3-3-(3)-3--5-|-5--5-------|
|-5-5-5-5-(5)----|-2-2-2-2-(2)-4--5-|-5--5-------|
|-0-0-0-0-(0)----|-0-0-0-0-(0)-0--0-|-0--0-------|
|----------------|------------------|------------|
|----------------|------------------|------------|


  Dsus4 D          C/D   Gsus4/D    Dsus4 D     G/DD13    D9
  E E E E +H       E E E E +H       E E E E +E  Q  E   Q  q  H
|-3-3-3-2-(2)----|-3-3-3-3-(3)----|-3-3-3-2-(2)-3--7-|-7--5-------||
|-3-3-3-3-(3)----|-5-5-5-3-(3)----|-3-3-3-3-(3)-3--5-|-5--5-------||
|-2-2-2-2-(2)----|-5-5-5-5-(5)----|-2-2-2-2-(2)-4--5-|-5--5-------||
|-0-0-0-0-(0)----|-0-0-0-0-(0)----|-0-0-0-0-(0)-0--0-|-0--0-------||
|----------------|----------------|------------------|------------||
|----------------|----------------|------------------|------------||


   1st - 3rd Verses
    $
    Dsus4 D          C/D   Gsus4/D    Dsus4 D     G/DD13    D9
    E E E E +H       E E E E +H       E E E E +E  Q  E   Q  q  H
||--3-3-3-2-(2)----|-3-3-3-3-(3)----|-3-3-3-2-(2)-3--7-|-7--5-------|
||o-3-3-3-3-(3)----|-5-5-5-3-(3)----|-3-3-3-3-(3)-3--5-|-5--5-------|
||--2-2-2-2-(2)----|-5-5-5-5-(5)----|-2-2-2-2-(2)-4--5-|-5--5-------|
||--0-0-0-0-(0)----|-0-0-0-0-(0)----|-0-0-0-0-(0)-0--0-|-0--0-------|
||o----------------|----------------|------------------|------------|
||-----------------|----------------|------------------|------------|


                                                        To Coda
  Dsus4 D          C/D   Gsus4/D    Dsus4 D     G/DD13    D9
  E E E E +H       E E E E +H       E E E E +E  Q  E   Q  q  H
|-3-3-3-2-(2)----|-3-3-3-3-(3)----|-3-3-3-2-(2)-3--7-|-7--5--------||
|-3-3-3-3-(3)----|-5-5-5-3-(3)----|-3-3-3-3-(3)-3--5-|-5--5--------||
|-2-2-2-2-(2)----|-5-5-5-5-(5)----|-2-2-2-2-(2)-4--5-|-5--5--------||
|-0-0-0-0-(0)----|-0-0-0-0-(0)----|-0-0-0-0-(0)-0--0-|-0--0--------||
|----------------|----------------|------------------|-------------||
|----------------|----------------|------------------|-------------||


 Chorus
  D           Fsus4  D           Fsus4  D           Fsus4
  E E E S S E Q.     E E E S S E Q.     E E E S S E Q  E
|-2-----------6----|-2-----------6----|-2-----------6-----|
|-3-----------6----|-3-----------6----|-3-----------6--x--|
|-2-2-2-2-2-2-5----|-2-2-2-2-2-2-5----|-2-2-2-2-2-2-5--x--|
|-0-0-0-0-0-0------|-0-0-0-0-0-0------|-0-0-0-0-0-0----x--|
|------------------|------------------|-------------------|
|------------------|------------------|-------------------|


  Esus4 E            D           Fsus4  D           Fsus4
  E E E E Q  e S S   E E E S S E Q.     E E E S S E Q.
|------------0-----|-2-----------6----|-2-----------6-----|
|------------0-x-x-|-3-----------6----|-3-----------6-----|
|-2---2-1----1-x-x-|-2-2-2-2-2-2-5----|-2-2-2-2-2-2-5-----|
|-2-2-2-2-2----x-x-|-0-0-0-0-0-0------|-0-0-0-0-0-0-------|
|-2-2-2-2-2--------|------------------|-------------------|
|-2-2-2-2-2--------|------------------|-------------------|


                    1.
  D           Fsus4  Esus4 E            N.C.
  E E E S S E Q  E   E E E E Q  e S S   W
|-2-----------6----|------------0-----|------|
|-3-----------6--x-|------------0-x-x-|------|
|-2-2-2-2-2-2-5--x-|-2---2-1----1-x-x-|------|
|-0-0-0-0-0-0----x-|-2-2-2-2-2----x-x-|------|
|------------------|-2-2-2-2-2--------|------|
|------------------|-2-2-2-2-2--------|------|


  W          W          W
|----------|----------|-------||
|----------|----------|------o||
|----------|----------|-------||
|----------|----------|-------||
|----------|----------|------o||
|----------|----------|-------||


                      Organ Solo
  2.
  Esus4 E              N.C.
  E E E E Q  e S S     W          W
|------------0-----||-----------|------|
|------------0-x-x-||o----------|------|
|-2---2-1----1-x-x-||-----------|------|
|-2-2-2-2-2----x-x-||-----------|------|
|-2-2-2-2-2--------||o----------|------|
|-2-2-2-2-2--------||-----------|------|


  W          W            W
|----------|-----------||------|
|----------|----------o||------|
|----------|-----------||------|
|----------|-----------||------|
|----------|----------o||------|
|----------|-----------||------|


  D
  E. S e E H      E. S e E H      E. S e E e E e E   E. S e E e E e E
|---------------|---------------|------------------|-------------------|
|---------------|---------------|------------------|-------------------|
|---------------|---------------|------------------|-------------------|
|---------------|---------------|------------------|-------------------|
|-5--5-5--------|-5--5-5--------|-5--5-5---5---5---|-5--5-5---5---5----|
|-0--0-0--------|-0--0-0--------|-0--0-0---0---0---|-0--0-0---0---0----|


    E. S e E e E e E   E. S e E e E e E
||-------------------|------------------|
||o------------------|------------------|
||--7--7-7---7---7---|-7--7-7---7---7---|
||-------------------|------------------|
||o-5--5-5---5---5---|-5--5-5---5---5---|
||--0--0-0---0---0---|-0--0-0---0---0---|


  E. S e E e E e E   E. S e E e E e E
|------------------|-------------------||
|------------------|------------------o||
|-7--7-7---7---7---|-7--7-7---7---7----||
|------------------|-------------------||
|-5--5-5---5---5---|-5--5-5---5---5---o||
|-0--0-0---0---0---|-0--0-0---0---0----||


  E. S e E e E e E   E. S e E e E e E   E. S e E e E e E   E. S e E e E e E
|------------------|------------------|------------------|-------------------|
|------------------|------------------|------------------|-------------------|
|-7--7-7---7---7---|-7--7-7---7---7---|-7--7-7---7---7---|-7--7-7---7---7----|
|------------------|------------------|------------------|-------------------|
|-5--5-5---5---5---|-5--5-5---5---5---|-5--5-5---5---5---|-5--5-5---5---5----|
|-0--0-0---0---0---|-0--0-0---0---0---|-0--0-0---0---0---|-0--0-0---0---0----|


  E. S e E e E e E   E. S e E e E e E   E. S e E e E e E   E. S e E e E e E
|------------------|------------------|------------------|-------------------||
|------------------|------------------|------------------|-------------------||
|-7--7-7---7---7---|-7--7-7---7---7---|-7--7-7---7---7---|-7--7-7---7---7----||
|------------------|------------------|------------------|-------------------||
|-5--5-5---5---5---|-5--5-5---5---5---|-5--5-5---5---5---|-5--5-5---5---5----||
|-0--0-0---0---0---|-0--0-0---0---0---|-0--0-0---0---0---|-0--0-0---0---0----||


    D          Fsus4  D          Fsus4    D          Fsus4  D          Fsus4
    E. S E E E Q.     E. S E E E Q.    6x E. S E E E Q.     E. S E E E Q.
||--2--2-2-x-x-6----|-2--2-2-x-x-6-----||-2--2-2-x-x-6----|-2--2-2-x-x-6----|
||o-3--3-3-x-x-6----|-3--3-3-x-x-6----o||-3--3-3-x-x-6----|-3--3-3-x-x-6----|
||--2--2-2-x-x-5----|-2--2-2-x-x-5-----||-2--2-2-x-x-5----|-2--2-2-x-x-5----|
||--0--0-0-x-x------|-0--0-0-x-x-------||-0--0-0-x-x------|-0--0-0-x-x------|
||o-----------------|-----------------o||-----------------|-----------------|
||------------------|------------------||-----------------|-----------------|


                    Interlude
  D          Fsus4
  E. S E E E Q.      W          W          W          W
|-2--2-2-x-x-6----||----------|----------|----------|------|
|-3--3-3-x-x-6----||----------|----------|----------|------|
|-2--2-2-x-x-5----||----------|----------|----------|------|
|-0--0-0-x-x------||----------|----------|----------|------|
|-----------------||----------|----------|----------|------|
|-----------------||----------|----------|----------|------|


  W          W          W          W
|----------|----------|----------|------|
|----------|----------|----------|------|
|----------|----------|----------|------|
|----------|----------|----------|------|
|----------|----------|----------|------|
|----------|----------|----------|------|


  D5
  E. S e E H      E. S e E H
|---------------|---------------|
|---------------|---------------|
|-7--7-7--------|-7--7-7--------|
|-7--7-7--------|-7--7-7--------|
|-5--5-5--------|-5--5-5--------|
|---------------|---------------|


  E. S e E H      E. S e E H      E. S e E H
|---------------|---------------|---------------|
|---------------|---------------|---------------|
|-7--7-7--------|-7--7-7--------|-7--7-7--------|
|-7--7-7--------|-7--7-7--------|-7--7-7--------|
|-5--5-5--------|-5--5-5--------|-5--5-5--------|
|---------------|---------------|---------------|


  E. S e E H      E. S e E H      E. S e E H      E. S e E H
|---------------|---------------|---------------|---------------||
|---------------|---------------|---------------|---------------||
|-7--7-7--------|-7--7-7--------|-7--7-7--------|-7--7-7--------||
|-7--7-7--------|-7--7-7--------|-7--7-7--------|-7--7-7--------||
|-5--5-5--------|-5--5-5--------|-5--5-5--------|-5--5-5--------||
|---------------|---------------|---------------|---------------||


 Chorus
  D           Fsus4  D           Fsus4  D           Fsus4  Esus4 E
  E E E S S E Q.     E E E S S E Q.     E E E S S E Q  E   E E E E Q  e S S
|-2-----------6----|-2-----------6----|-2-----------6----|------------0-------|
|-3-----------6----|-3-----------6----|-3-----------6--x-|------------0-x-x---|
|-2-2-2-2-2-2-5----|-2-2-2-2-2-2-5----|-2-2-2-2-2-2-5--x-|-2---2-1----1-x-x---|
|-0-0-0-0-0-0------|-0-0-0-0-0-0------|-0-0-0-0-0-0----x-|-2-2-2-2-2----x-x---|
|------------------|------------------|------------------|-2-2-2-2-2----------|
|------------------|------------------|------------------|-2-2-2-2-2----------|


                                                                D.S. al Coda
  D           Fsus4  D           Fsus4  D           Fsus4  Esus4 E
  E E E S S E Q.     E E E S S E Q.     E E E S S E Q  E   E E E E Q  e S S
|-2-----------6----|-2-----------6----|-2-----------6----|------------0-------||
|-3-----------6----|-3-----------6----|-3-----------6--x-|------------0-x-x---||
|-2-2-2-2-2-2-5----|-2-2-2-2-2-2-5----|-2-2-2-2-2-2-5--x-|-2---2-1----1-x-x---||
|-0-0-0-0-0-0------|-0-0-0-0-0-0------|-0-0-0-0-0-0----x-|-2-2-2-2-2----x-x---||
|------------------|------------------|------------------|-2-2-2-2-2----------||
|------------------|------------------|------------------|-2-2-2-2-2----------||


   Out-Chorus
    &
    D           Fsus4  D           Fsus4
    E E E S S E Q.     E E E S S E Q.
||--2-----------6----|-2-----------6----|
||o-3-----------6----|-3-----------6----|
||--2-2-2-2-2-2-5----|-2-2-2-2-2-2-5----|
||--0-0-0-0-0-0------|-0-0-0-0-0-0------|
||o------------------|------------------|
||-------------------|------------------|


  D           Fsus4  Esus4 E
  E E E S S E Q.     E E E E Q  e S S   5x
|-2-----------6----|------------0-------||
|-3-----------6----|------------0-x-x--o||
|-2-2-2-2-2-2-5----|-2---2-1----1-x-x---||
|-0-0-0-0-0-0------|-2-2-2-2-2----x-x---||
|------------------|-2-2-2-2-2---------o||
|------------------|-2-2-2-2-2----------||


Duration Legend
---------------
W - whole; H - half; Q - quarter; E - 8th; S - 16th; T - 32nd; X - 64th; a - acciaccatura
+ - note tied to previous; . - note dotted; .. - note double dotted
Uncapitalized letters represent notes that are staccato (1/2 duration)
Irregular groupings are notated above the duration line
Duration letters will always appear directly above the note/fret number it represents the
duration for.  Duration letters with no fret number below them represent rests.  Multi-
bar rests are notated in the form Wxn, where n is the number of bars to rest for.  Low
melody durations appear below the staff

Tablature Legend
----------------
 h   - hammer-on
 p   - pull-off
 b   - bend
 pb  - pre-bend
 r   - bend release (if no number after the r, then release immediately)
 /\  - slide into or out of (from/to "nowhere")
 s   - legato slide
 S   - shift slide
  - natural harmonic
[n]  - artificial harmonic
n(n) - tapped harmonic
 ~   - vibrato
 tr  - trill
 T   - tap
 TP  - trem. picking
 PM  - palm muting
\n/  - tremolo bar dip; n = amount to dip
 \n  - tremolo bar down
 n/  - tremolo bar up
/n\  - tremolo bar inverted dip
 =   - hold bend; also acts as connecting device for hammers/pulls
 <>  - volume swell (louder/softer)
 x   - on rhythm slash represents muted slash
 o   - on rhythm slash represents single note slash

Misc Legend
-----------
 |  - bar
||  - double bar
||o - repeat start
o|| - repeat end
*|  - double bar (ending)
 :  - bar (freetime)
 $  - Segno
 &  - Coda
Tempo markers -  = BPM(8/16=s8/s16), where s8 = swing 8ths, s16 = swing 16ths





And if it's bad
Don't let it get you down, you can take it
And if it hurts
Don't let them see you cry, you can take it

Hold your head up, hold your head up
Hold your head up, hold your head high

And if they stare
Just let them burn their eyes on you moving
And if they shout
Don't let them change a thing what you're doing

Hold your head up, hold your head up
Hold your head up, hold your head high

            
            
Suggest correction
Creating personal tab
Creating personal tab
You can edit any tab online and save it as your Personal.

You can edit, replace or remove any tab part or add personal notes – all changes will be seen only by you.

Personal tabs can be accessed anytime from any device, even offline.
Learn more »
Give kudos to tab author, rate the tab!
1 2 3 4 5
comments
print report bad tab
guest
You may want to rate the tab now too:
select rating
Wanna post a correction for this tab? Suggest correction