Oops, an error
Loading. Please wait.

Pour Me In Tab

7 views 1 this week
no commentswrite comment
1 2 3 4 5
3 more votes to show rating
add to favorites
launch autoscroll
font size
0
reset
how to read this tab
guitar tuner
Autoscroll
slow
fast
+/-
esc
set tempo
stop
Help us to improve Ultimate-Guitar.com Take our survey!
×
Author
Difficulty
intermediate
Pour Me In
Artist: Ari Hest
Album: Come Home
Released: 2001
Tabbed by AbeEscalera

[Part 1] "locked in a day dream
e|--3--3--3---3-----|
B|--3--3--3---3-----|
G|--0--0--2---0-----|(x 2)
D|--0--2--0---0-----|
A|--2--0--x---2-----|
E|--3-----2---0-----|

[Part 2] "I Thought It Would Take More Time 
e|-5-5--0-0--------|
B|-5-5--5-5--------|
G|-5-5--5-5--------|
D|-7-6--5-4--------|( x 1)
A|-7-7--x-5--------|
E|-5-5--5-x--------|

[Part 3] "But You Crept
e|-0---0--1--3----3-0-----|
B|-1---0--1--3----3-3-----|
G|-2---2--2--0----0-2-----|
D|-3-2-1--3--0----2-0-----| (x 1)
A|-----2--3--x----3-x-----|
E|-----x--1--3----x-x-----|

[Part 4] "Baby Love
e|-3-3-3-0---------|
B|-3-3-3-3---------|
G|-0-0-0-2---------|
D|-0-0-0-0---------|(x 1)
A|-2-2-2-----------|
E|-3-2-0-----------|

[Part 5] "Pour me in
e|-x-3-------------0-3-----|
B|-5-5-7-7---------1-3-----|
G|-4-4-7-7---------2-0-----|(x 1)
D|-5-5-7-6--(x 2)--2-0-----|
A|-4-3-x-7---------0-2-----|
E|-x-3-7-------------3-----|

Chords Between [Part 5] and [Part 6]
e|-3-3-3----------|
B|-3-4-6----------|
G|-4-3-5----------|(x 1)
D|-5-5-3----------|
A|-5-3-3----------|
E|-3-3-3----------|

[Part 6] "So In This Space That We Share
e|--3--3--3---3-----|
B|--3--3--3---3-----|
G|--0--0--2---0-----|(x 2)
D|--0--2--0---0-----|
A|--2--0--x---2-----|
E|--3-----2---0-----|

[Part 7] "Well Never Again 
e|-5-5--0-0--------|
B|-5-5--5-5--------|
G|-5-5--5-5--------|
D|-7-6--5-4--------| (x 1)
A|-7-7--x-5--------|
E|-5-5--5-x--------|

[Part 8] "No More Meaning
e|-0---0--1--3----3-0-----|
B|-1---0--1--3----3-3-----|
G|-2---2--2--0----0-2-----| (x 1)
D|-3-2-1--3--0----2-0-----|
A|-----2--3--x----3-x-----|
E|-----x--1--3----x-x-----|

[Lyrics]
[Part 1]
Locked In Daydream
Fire Within Me
For One Fleeting Moment Before I Return
Petals From Your Roses
Postcards And Poses
Memories Of A Love We Earned

[Part 2]
I Thought It Would Take More Time
To Get This Infatuation

[Part 3]
But You Crept Into My Soul
No More Need For Patience
I'll Take You On

[Part 4]
Baby Love Pour Me In
Pour Me In To Your Heart Baby Love

[Part 5]
Pour Me In Pour Me Into Your Heart
Baby Love Pour Me In Pour Me Into Your Heart
Cause I don't Want To Feel Like I'm Missin
This Love I've Been Given, Oh No.

[Part 6]
So In This Space That We Share
Take All That I Have To Spare
Just Allow Me To Keep My Ear Whisper Away
For Whenever The Time Soon Come
When You're Ready To Move As One
I don't Wanna Feel The Slightest Delay

[Part 7]
Well Never Again When The Feeling Arise Of Lonely Desperation

[Part 8]
No More Meaning For An End Without Seperation
Come Take Me On, 

[Part 4]
Baby Love
Pour Me In Pour Me Into Your Heart

[Part 5]
Baby Love Pour Me In Pour Me Into Your Heart
Baby Love Pour Me In Pour Me Into Your Heart
Cause I don't Wanna Feel Like I'm Missing
This Love, This Love, My Love
Pour Me In Pour Me Into Your Heart Baby Love (x 3)
Cause I don't Wanna Feel Like Missin All The Love That You're Givin Me
Pour Me In (x 4)...

***********************************

| x  Dead note

************************************
Suggest correction
Give kudos to tab author, rate the tab!
1 2 3 4 5
comments
print report bad tab
guest
You may want to rate the tab now too:
select rating
Wanna post a correction for this tab? Suggest correction