Oops, an error
Loading. Please wait.

Arrows And Loops tab

10 views 1 this week
no commentswrite comment
1 2 3 4 5
3 more votes to show rating
add to favorites
×
Save as Personal and add changes to this tab that will be seen only by you. Learn more ›
×
You can save this tab as Personal to edit and correct it or add notes. All changes will be seen only by you. Learn more »
launch autoscroll
font size
0
reset
how to read this tab
guitar tuner
edit
Autoscroll
slow
fast
+/-
esc
set tempo
stop
Album: 'Lines of Oppression

[A] (11/8)
e|-----------|-----------|----------|----------|
B|---6-------|-7---------|----6-6---|----------|
G|----------8|-------6-8-|----------|---6-6----|
D|-8---------|-----------|----------|----------|
A|-----------|-----------|----------|----------|
E|-----------|-----------|----------|----------|
                                             (x2)
e|---6-------|-8---------|----------|----------|
B|----------9|-------6-7-|----------|----------|
G|-----------|-----------|----8-8---|----------|
D|-8---------|-----------|----------|---8-8----|
A|-----------|-----------|----------|----------|
E|-----------|-----------|----------|----------|

[B]
e|-------------------|---------------------|--------------------|---------------------|
B|-------6--6--6--4-6|-7-6-4---------------|--------6--6--6--4-6|-7-6-4---------------|
G|-------------------|-------6--6--6--8----|--------------------|-------6--6--6--8----|
D|-8---8-------------|-------------------6-|-8---8--------------|-------------------6-|
A|-------------------|---------------------|--------------------|---------------------|
E|-------------------|---------------------|--------------------|---------------------|
                                                                                    (x2)
e|-------6--6--6--4-6|-8-6-4-----------4-|-6-4----------------|-----------------------|
B|-------------------|-------6--6--6-7---|-----7--4--4--4----4|-6---------------------|
G|-------------------|-------------------|-----------------6--|---3--3--3-----5--6-5--|
D|-8--8--------------|-------------------|--------------------|------------3----------|
A|-------------------|-------------------|--------------------|-----------------------|
E|-------------------|-------------------|--------------------|-----------------------|

[A]
e|-----------|-----------|----------|----------|
B|---6-------|-7---------|----6-6---|----------|
G|----------8|-------6-8-|----------|---6-6----|
D|-8---------|-----------|----------|----------|
A|-----------|-----------|----------|----------|
E|-----------|-----------|----------|----------|
                                             (x2)
e|---6-------|-8---------|----------|----------|
B|----------9|-------6-7-|----------|----------|
G|-----------|-----------|----8-8---|----------|
D|-8---------|-----------|----------|---8-8----|
A|-----------|-----------|----------|----------|
E|-----------|-----------|----------|----------|

[B]
e|-------------------|---------------------|--------------------|---------------------|
B|-------6--6--6--4-6|-7-6-4---------------|--------6--6--6--4-6|-7-6-4---------------|
G|-------------------|-------6--6--6--8----|--------------------|-------6--6--6--8----|
D|-8---8-------------|-------------------6-|-8---8--------------|-------------------6-|
A|-------------------|---------------------|--------------------|---------------------|
E|-------------------|---------------------|--------------------|---------------------|
                                                                                    (x2)
e|-------6--6--6--4-6|-8-6-4-----------4-|-6-4----------------|-----------------------|
B|-------------------|-------6--6--6-7---|-----7--4--4--4----4|-6---------------------|
G|-------------------|-------------------|-----------------6--|---3--3--3-----5--6-5--|
D|-8--8--------------|-------------------|--------------------|------------3----------|
A|-------------------|-------------------|--------------------|-----------------------|
E|-------------------|-------------------|--------------------|-----------------------|

[C]
   Bb     Gb/Bb    Eb/Bb  GbM9     Gm7     Db/C     B/Bb   F7sus  
e|--------6------|-3------6------|-6--------------|--------5------|
B|-3------6------|-4------7------|-6-------6------|-7------6------|
G|-3------3------|-3------6------|-7-------6------|-8------5------|
D|-3------4------|-3------6------|-8-------6------|-9------8------|
A|---------------|---------------|----------------|---------------|
E|---------------|---------------|----------------|---------------|

[D] (6/4, 5/4)
   BM7                F7/A           Bb/Eb               F7      Ab7
e|--------2-------2-|-1------------|----------11---9-7-|-5-------2--------|
B|--------------4---|-------1--4/6-|-7-----------------|------4------2--4-|
G|-4----------------|---(2)--------|------(6)----------|---(5)---1--------|
D|----(1)-----------|-3------------|---(6)-------------|-3----------------|
A|-2----------------|--------------|-6-----------------|------------------|
E|------------------|--------------|-------------------|------------------|

   BM7                F7/A           Bb/Eb               F7sus           (x2)
e|--------2-------2-|-1------------|----------11---9-7-|-6-----6--5--------|
B|--------------4---|-------1--4/6-|-7-----------------|--------------4--6-|
G|-4----------------|---(2)--------|------(6)----------|---(5)-------------|
D|----(1)-----------|-3------------|---(6)-------------|-3-----------------|
A|-2----------------|--------------|-6-----------------|-------------------|
E|------------------|--------------|-------------------|-------------------|

[B] (11/8)
e|-------------------|---------------------|--------------------|---------------------|
B|-------6--6--6--4-6|-7-6-4---------------|--------6--6--6--4-6|-7-6-4---------------|
G|-------------------|-------6--6--6--8----|--------------------|-------6--6--6--8----|
D|-8---8-------------|-------------------6-|-8---8--------------|-------------------6-|
A|-------------------|---------------------|--------------------|---------------------|
E|-------------------|---------------------|--------------------|---------------------|
                                                                                    
e|-------6--6--6--4-6|-8-6-4-----------4-|-6-4----------------|-----------------------|
B|-------------------|-------6--6--6-7---|-----7--4--4--4----4|-6---------------------|
G|-------------------|-------------------|-----------------6--|---3--3--3-----5--6-5--|
D|-8--8--------------|-------------------|--------------------|------------3----------|
A|-------------------|-------------------|--------------------|-----------------------|
E|-------------------|-------------------|--------------------|-----------------------|

[Piano Solo] 
(2:24)

[B] 
(5:33)
e|-------------------|---------------------|--------------------|---------------------|
B|-------6--6--6--4-6|-7-6-4---------------|--------6--6--6--4-6|-7-6-4---------------|
G|-------------------|-------6--6--6--8----|--------------------|-------6--6--6--8----|
D|-8---8-------------|-------------------6-|-8---8--------------|-------------------6-|
A|-------------------|---------------------|--------------------|---------------------|
E|-------------------|---------------------|--------------------|---------------------|
                                                                                    
e|-------6--6--6--4-6|-8-6-4-----------4-|-6-4----------------|-----------------------|
B|-------------------|-------6--6--6-7---|-----7--4--4--4----4|-6---------------------|
G|-------------------|-------------------|-----------------6--|---3--3--3-----5--6-5--|
D|-8--8--------------|-------------------|--------------------|------------3----------|
A|-------------------|-------------------|--------------------|-----------------------|
E|-------------------|-------------------|--------------------|-----------------------|

[D] (6/4,5/4)
   BM7                F7/A           Bb/Eb               F7      Ab7
e|--------2-------2-|-1------------|----------11---9-7-|-5-------2--------|
B|--------------4---|-------1--4/6-|-7-----------------|------4------2--4-|
G|-4----------------|---(2)--------|------(6)----------|---(5)---1--------|
D|----(1)-----------|-3------------|---(6)-------------|-3----------------|
A|-2----------------|--------------|-6-----------------|------------------|
E|------------------|--------------|-------------------|------------------|

   BM7                F7/A           Bb/Eb               F7sus           
e|--------2-------2-|-1------------|----------11---9-7-|-6-----6--5--------|
B|--------------4---|-------1--4/6-|-7-----------------|--------------4--6-|
G|-4----------------|---(2)--------|------(6)----------|---(5)-------------|
D|----(1)-----------|-3------------|---(6)-------------|-3-----------------|
A|-2----------------|--------------|-6-----------------|-------------------|
E|------------------|--------------|-------------------|-------------------|

[E] 
(6/4, 5/4)
e|--------------------------------------------|---------------------------------------------|
B|---7-9-11-----7-9-11-----7-9-11-----7-9-11--|------9-10-------9-10-------9-10-------9-10--|
G|-8----------8----------8----------8---------|-8-10-------8-10-------8-10-------8-10-------|
D|--------------------------------------------|---------------------------------------------|
A|--------------------------------------------|---------------------------------------------|
E|--------------------------------------------|---------------------------------------------|
                                                                                            (x2)
e|--------------------------------------------|-----------------------------------------------|
B|---7-9-11-----7-9-11-----7-9-11-----7-9-11--|------9-10-------9-10-----9-11-13-----9-11-13--|
G|-8----------8----------8----------8---------|-8-10-------8-10-------10----------10----------|
D|--------------------------------------------|-----------------------------------------------|
A|--------------------------------------------|-----------------------------------------------|
E|--------------------------------------------|-----------------------------------------------|

[D]
   BM7                F7/A           Bb/Eb               F7      Ab7
e|--------2-------2-|-1------------|----------11---9-7-|-5-------2--------|
B|--------------4---|-------1--4/6-|-7-----------------|------4------2--4-|
G|-4----------------|---(2)--------|------(6)----------|---(5)---1--------|
D|----(1)-----------|-3------------|---(6)-------------|-3----------------|
A|-2----------------|--------------|-6-----------------|------------------|
E|------------------|--------------|-------------------|------------------|

   BM7                F7/A           Bb/Eb               F7sus           
e|--------2-------2-|-1------------|----------11---9-7-|-6-----6--5--------|
B|--------------4---|-------1--4/6-|-7-----------------|--------------4--6-|
G|-4----------------|---(2)--------|------(6)----------|---(5)-------------|
D|----(1)-----------|-3------------|---(6)-------------|-3-----------------|
A|-2----------------|--------------|-6-----------------|-------------------|
E|------------------|--------------|-------------------|-------------------|

[E] (6/4, 5/4)
e|--------------------------------------------|---------------------------------------------|
B|---7-9-11-----7-9-11-----7-9-11-----7-9-11--|------9-10-------9-10-------9-10-------9-10--|
G|-8----------8----------8----------8---------|-8-10-------8-10-------8-10-------8-10-------|
D|--------------------------------------------|---------------------------------------------|
A|--------------------------------------------|---------------------------------------------|
E|--------------------------------------------|---------------------------------------------|
                                                                                            (x2)
e|--------------------------------------------|-----------------------------------------------|
B|---7-9-11-----7-9-11-----7-9-11-----7-9-11--|------9-10-------9-10-----9-11-13-----9-11-13--|
G|-8----------8----------8----------8---------|-8-10-------8-10-------10----------10----------|
D|--------------------------------------------|-----------------------------------------------|
A|--------------------------------------------|-----------------------------------------------|
E|--------------------------------------------|-----------------------------------------------|

[C]
   Bb     Gb/Bb    Eb/Bb  GbM9     Gm7     Db/C     B/Bb   F7sus x8
e|--------6------|-3------6------|-6--------------|--------5------|
B|-3------6------|-4------7------|-6-------6------|-7------6------|
G|-3------3------|-3------6------|-7-------6------|-8------5------|
D|-3------4------|-3------6------|-8-------6------|-9------8------|
A|---------------|---------------|----------------|---------------|
E|---------------|---------------|----------------|---------------|

[A] (11/8)
e|-----------|-----------|----------|----------|
B|---6-------|-7---------|----6-6---|----------|
G|----------8|-------6-8-|----------|---6-6----|
D|-8---------|-----------|----------|----------|
A|-----------|-----------|----------|----------|
E|-----------|-----------|----------|----------|
                                             (x4)
e|---6-------|-8---------|----------|----------|
B|----------9|-------6-7-|----------|----------|
G|-----------|-----------|----8-8---|----------|
D|-8---------|-----------|----------|---8-8----|
A|-----------|-----------|----------|----------|
E|-----------|-----------|----------|----------|

[B]
e|-------------------|---------------------|--------------------|---------------------|
B|-------6--6--6--4-6|-7-6-4---------------|--------6--6--6--4-6|-7-6-4---------------|
G|-------------------|-------6--6--6--8----|--------------------|-------6--6--6--8----|
D|-8---8-------------|-------------------6-|-8---8--------------|-------------------6-|
A|-------------------|---------------------|--------------------|---------------------|
E|-------------------|---------------------|--------------------|---------------------|
                                                                                    (x2)
e|-------6--6--6--4-6|-8-6-4-----------4-|-6-4----------------|-----------------------|
B|-------------------|-------6--6--6-7---|-----7--4--4--4----4|-6---------------------|
G|-------------------|-------------------|-----------------6--|---3--3--3-----5--6-5--|
D|-8--8--------------|-------------------|--------------------|------------3----------|
A|-------------------|-------------------|--------------------|-----------------------|
E|-------------------|-------------------|--------------------|-----------------------|

-The fingering for the [B] riff is a little weird 
but it's how the guitarist plays it live. Play the root note (Bb)
with your pinky and it should fall into place (though it's a bit of a stretch)
-For the [D] part I outlined the root notes and melody with optional notes
in (). Feel free to add more chord notes
-Hope this is helpful



************************************

| /    Slide up
| (n)  Ghost note
| (x   
| )    

************************************
Suggest correction
Creating personal tab
Creating personal tab
You can edit any tab online and save it as your Personal.

You can edit, replace or remove any tab part or add personal notes – all changes will be seen only by you.

Personal tabs can be accessed anytime from any device, even offline.
Learn more »
Give kudos to tab author, rate the tab!
1 2 3 4 5
comments
print report bad tab
guest
You may want to rate the tab now too:
select rating
Wanna post a correction for this tab? Suggest correction