Oops, an error
Loading. Please wait.

Hear My Call Tab

version 1
version 1

Intro

6,200 views 6 this week
1 commentread comment
1 2 3 4 5
x 4
add to favorites
launch autoscroll
font size
0
reset
how to read this tab
guitar tuner
×
Best way to learn
"Hear My Call"
Autoscroll
slow
fast
+/-
esc
set tempo
stop
Author
Difficulty
  follow
novice
|------------------|------------------|-12-----12----12----|
|------------------|-10b-10b-10-10—8--|---12-----12--------|
|-10b—-10b-10-8----|------------------|------12----12---12-|
|---------------11-|------------------|--------------------|
|------------------|------------------|--------------------|
|------------------|------------------|--------------------|

|-15-12-------------------|
|-------12----12----------|
|----------14----14-12----|
|----------------------14-|
|-------------------------|
|-------------------------| 
Suggest correction
comments
print report bad tab
1 comment total.
0 reply
Iplayer 10 Nov 29, 2009 05:09 AM

F*cking lame.

guest
You may want to rate the tab now too:
select rating
Wanna post a correction for this tab? Suggest correction